ISO-10303-21;
HEADER;
/* Generated by software containing ST-Developer
 * from STEP Tools, Inc. (www.steptools.com) 
 */
/* OPTION: using custom schema-name function */

FILE_DESCRIPTION(
/* description */ (''),
/* implementation_level */ '2;1');

FILE_NAME(
/* name */ 'SGM-0.25.stp',
/* time_stamp */ '2023-07-31T14:08:02+08:00',
/* author */ (''),
/* organization */ (''),
/* preprocessor_version */ 'ST-DEVELOPER v11',
/* originating_system */ 'SIEMENS PLM Software NX 7.5',
/* authorisation */ '');

FILE_SCHEMA (('CONFIG_CONTROL_DESIGN'));
ENDSEC;

DATA;
#10=SHAPE_REPRESENTATION_RELATIONSHIP('None',
'relationship between fang57B4my32-None and fang57B4my32-None',#94,#11);
#11=ADVANCED_BREP_SHAPE_REPRESENTATION('fang57B4my32-None',(#95),#511);
#12=CC_DESIGN_APPROVAL(#24,(#82));
#13=CC_DESIGN_APPROVAL(#25,(#84));
#14=CC_DESIGN_APPROVAL(#26,(#31));
#15=APPROVAL_PERSON_ORGANIZATION(#69,#24,#18);
#16=APPROVAL_PERSON_ORGANIZATION(#70,#25,#19);
#17=APPROVAL_PERSON_ORGANIZATION(#71,#26,#20);
#18=APPROVAL_ROLE('approver');
#19=APPROVAL_ROLE('approver');
#20=APPROVAL_ROLE('approver');
#21=APPROVAL_DATE_TIME(#39,#24);
#22=APPROVAL_DATE_TIME(#40,#25);
#23=APPROVAL_DATE_TIME(#41,#26);
#24=APPROVAL(#27,' ');
#25=APPROVAL(#28,' ');
#26=APPROVAL(#29,' ');
#27=APPROVAL_STATUS('not_yet_approved');
#28=APPROVAL_STATUS('not_yet_approved');
#29=APPROVAL_STATUS('not_yet_approved');
#30=CC_DESIGN_SECURITY_CLASSIFICATION(#31,(#84));
#31=SECURITY_CLASSIFICATION(' ',' ',#32);
#32=SECURITY_CLASSIFICATION_LEVEL('confidential');
#33=CC_DESIGN_DATE_AND_TIME_ASSIGNMENT(#37,#35,(#82));
#34=CC_DESIGN_DATE_AND_TIME_ASSIGNMENT(#38,#36,(#31));
#35=DATE_TIME_ROLE('creation_date');
#36=DATE_TIME_ROLE('classification_date');
#37=DATE_AND_TIME(#52,#42);
#38=DATE_AND_TIME(#53,#43);
#39=DATE_AND_TIME(#54,#44);
#40=DATE_AND_TIME(#55,#45);
#41=DATE_AND_TIME(#56,#46);
#42=LOCAL_TIME(0,0,0.,#47);
#43=LOCAL_TIME(0,0,0.,#48);
#44=LOCAL_TIME(0,0,0.,#49);
#45=LOCAL_TIME(0,0,0.,#50);
#46=LOCAL_TIME(0,0,0.,#51);
#47=COORDINATED_UNIVERSAL_TIME_OFFSET(0,0,.BEHIND.);
#48=COORDINATED_UNIVERSAL_TIME_OFFSET(0,0,.BEHIND.);
#49=COORDINATED_UNIVERSAL_TIME_OFFSET(0,0,.BEHIND.);
#50=COORDINATED_UNIVERSAL_TIME_OFFSET(0,0,.BEHIND.);
#51=COORDINATED_UNIVERSAL_TIME_OFFSET(0,0,.BEHIND.);
#52=CALENDAR_DATE(0,1,1);
#53=CALENDAR_DATE(0,1,1);
#54=CALENDAR_DATE(0,1,1);
#55=CALENDAR_DATE(0,1,1);
#56=CALENDAR_DATE(0,1,1);
#57=CC_DESIGN_PERSON_AND_ORGANIZATION_ASSIGNMENT(#65,#61,(#82,#84));
#58=CC_DESIGN_PERSON_AND_ORGANIZATION_ASSIGNMENT(#66,#62,(#86));
#59=CC_DESIGN_PERSON_AND_ORGANIZATION_ASSIGNMENT(#67,#63,(#84));
#60=CC_DESIGN_PERSON_AND_ORGANIZATION_ASSIGNMENT(#68,#64,(#31));
#61=PERSON_AND_ORGANIZATION_ROLE('creator');
#62=PERSON_AND_ORGANIZATION_ROLE('design_owner');
#63=PERSON_AND_ORGANIZATION_ROLE('design_supplier');
#64=PERSON_AND_ORGANIZATION_ROLE('classification_officer');
#65=PERSON_AND_ORGANIZATION(#79,#72);
#66=PERSON_AND_ORGANIZATION(#79,#73);
#67=PERSON_AND_ORGANIZATION(#79,#74);
#68=PERSON_AND_ORGANIZATION(#79,#75);
#69=PERSON_AND_ORGANIZATION(#79,#76);
#70=PERSON_AND_ORGANIZATION(#79,#77);
#71=PERSON_AND_ORGANIZATION(#79,#78);
#72=ORGANIZATION(' ',' ',' ');
#73=ORGANIZATION(' ',' ',' ');
#74=ORGANIZATION(' ',' ',' ');
#75=ORGANIZATION(' ',' ',' ');
#76=ORGANIZATION(' ',' ',' ');
#77=ORGANIZATION(' ',' ',' ');
#78=ORGANIZATION(' ',' ',' ');
#79=PERSON(' ',' ',' ',(' '),$,$);
#80=SHAPE_DEFINITION_REPRESENTATION(#81,#94);
#81=PRODUCT_DEFINITION_SHAPE('','',#82);
#82=PRODUCT_DEFINITION(' ','',#84,#83);
#83=DESIGN_CONTEXT('',#93,'design');
#84=PRODUCT_DEFINITION_FORMATION_WITH_SPECIFIED_SOURCE(' ',' ',#86,.NOT_KNOWN.);
#85=PRODUCT_RELATED_PRODUCT_CATEGORY('detail','',(#86));
#86=PRODUCT('fang57B4my32','fang57B4my32',' ',(#91));
#87=PRODUCT_CATEGORY_RELATIONSHIP(' ',' ',#89,#90);
#88=PRODUCT_CATEGORY_RELATIONSHIP('','',#90,#85);
#89=PRODUCT_CATEGORY('part',' ');
#90=PRODUCT_CATEGORY(' ','');
#91=MECHANICAL_CONTEXT(' ',#93,'mechanical');
#92=APPLICATION_PROTOCOL_DEFINITION('international standard',
'config_control_design',1994,#93);
#93=APPLICATION_CONTEXT(
'configuration controlled 3D designs of mechanical parts and assemblies');
#94=SHAPE_REPRESENTATION('fang57B4my32-None',(#254),#511);
#95=MANIFOLD_SOLID_BREP('-1',#96);
#96=CLOSED_SHELL('',(#119,#120,#121,#122,#123,#124,#125,#126,#127,#128,#129,
#130,#131,#132));
#97=PLANE('',#278);
#98=PLANE('',#279);
#99=PLANE('',#280);
#100=VERTEX_LOOP('',#233);
#101=SPHERICAL_SURFACE('',#260,0.5);
#102=FACE_OUTER_BOUND('',#171,.T.);
#103=CONICAL_SURFACE('',#258,0.950000000000004,33.6900675259797);
#104=CONICAL_SURFACE('',#267,0.32,45.0000000000001);
#105=CONICAL_SURFACE('',#270,0.320000000000001,59.9999999999998);
#106=CONICAL_SURFACE('',#273,0.829999999999997,10.304846468766);
#107=CIRCLE('',#256,1.05);
#108=CIRCLE('',#257,0.950000000000004);
#109=CIRCLE('',#259,0.5);
#110=CIRCLE('',#261,0.5);
#111=CIRCLE('',#263,1.05);
#112=CIRCLE('',#265,0.62);
#113=CIRCLE('',#266,0.32);
#114=CIRCLE('',#268,0.320000000000001);
#115=CIRCLE('',#271,0.829999999999997);
#116=CIRCLE('',#272,0.729999999999997);
#117=CIRCLE('',#274,0.729999999999997);
#118=CIRCLE('',#276,0.829999999999997);
#119=ADVANCED_FACE('',(#139,#140),#133,.F.);
#120=ADVANCED_FACE('',(#141,#142),#103,.T.);
#121=ADVANCED_FACE('',(#102),#101,.T.);
#122=ADVANCED_FACE('',(#143,#144),#134,.T.);
#123=ADVANCED_FACE('',(#145,#146),#135,.T.);
#124=ADVANCED_FACE('',(#147,#148),#104,.F.);
#125=ADVANCED_FACE('',(#149,#150,#151),#136,.F.);
#126=ADVANCED_FACE('',(#152,#153),#105,.F.);
#127=ADVANCED_FACE('',(#154,#155),#106,.T.);
#128=ADVANCED_FACE('',(#156,#157),#137,.T.);
#129=ADVANCED_FACE('',(#158,#159,#160),#138,.T.);
#130=ADVANCED_FACE('',(#161,#162),#97,.T.);
#131=ADVANCED_FACE('',(#163,#164),#98,.T.);
#132=ADVANCED_FACE('',(#165,#166),#99,.F.);
#133=CYLINDRICAL_SURFACE('',#255,0.3);
#134=CYLINDRICAL_SURFACE('',#262,0.5);
#135=CYLINDRICAL_SURFACE('',#264,1.05);
#136=CYLINDRICAL_SURFACE('',#269,0.32);
#137=CYLINDRICAL_SURFACE('',#275,0.729999999999997);
#138=CYLINDRICAL_SURFACE('',#277,0.829999999999997);
#139=FACE_BOUND('',#167,.T.);
#140=FACE_BOUND('',#168,.T.);
#141=FACE_BOUND('',#169,.T.);
#142=FACE_BOUND('',#170,.T.);
#143=FACE_BOUND('',#172,.T.);
#144=FACE_BOUND('',#173,.T.);
#145=FACE_BOUND('',#174,.T.);
#146=FACE_BOUND('',#175,.T.);
#147=FACE_BOUND('',#176,.T.);
#148=FACE_BOUND('',#177,.T.);
#149=FACE_BOUND('',#178,.T.);
#150=FACE_BOUND('',#179,.T.);
#151=FACE_BOUND('',#180,.T.);
#152=FACE_BOUND('',#181,.T.);
#153=FACE_BOUND('',#100,.T.);
#154=FACE_BOUND('',#182,.T.);
#155=FACE_BOUND('',#183,.T.);
#156=FACE_BOUND('',#184,.T.);
#157=FACE_BOUND('',#185,.T.);
#158=FACE_BOUND('',#186,.T.);
#159=FACE_BOUND('',#187,.T.);
#160=FACE_BOUND('',#188,.T.);
#161=FACE_BOUND('',#189,.T.);
#162=FACE_BOUND('',#190,.T.);
#163=FACE_BOUND('',#191,.T.);
#164=FACE_BOUND('',#192,.T.);
#165=FACE_BOUND('',#193,.T.);
#166=FACE_BOUND('',#194,.T.);
#167=EDGE_LOOP('',(#195));
#168=EDGE_LOOP('',(#196));
#169=EDGE_LOOP('',(#197));
#170=EDGE_LOOP('',(#198));
#171=EDGE_LOOP('',(#199));
#172=EDGE_LOOP('',(#200));
#173=EDGE_LOOP('',(#201));
#174=EDGE_LOOP('',(#202));
#175=EDGE_LOOP('',(#203));
#176=EDGE_LOOP('',(#204));
#177=EDGE_LOOP('',(#205));
#178=EDGE_LOOP('',(#206));
#179=EDGE_LOOP('',(#207));
#180=EDGE_LOOP('',(#208));
#181=EDGE_LOOP('',(#209));
#182=EDGE_LOOP('',(#210));
#183=EDGE_LOOP('',(#211));
#184=EDGE_LOOP('',(#212));
#185=EDGE_LOOP('',(#213));
#186=EDGE_LOOP('',(#214));
#187=EDGE_LOOP('',(#215));
#188=EDGE_LOOP('',(#216));
#189=EDGE_LOOP('',(#217));
#190=EDGE_LOOP('',(#218));
#191=EDGE_LOOP('',(#219));
#192=EDGE_LOOP('',(#220));
#193=EDGE_LOOP('',(#221));
#194=EDGE_LOOP('',(#222));
#195=ORIENTED_EDGE('',*,*,#238,.F.);
#196=ORIENTED_EDGE('',*,*,#239,.F.);
#197=ORIENTED_EDGE('',*,*,#240,.F.);
#198=ORIENTED_EDGE('',*,*,#241,.F.);
#199=ORIENTED_EDGE('',*,*,#242,.F.);
#200=ORIENTED_EDGE('',*,*,#243,.T.);
#201=ORIENTED_EDGE('',*,*,#242,.T.);
#202=ORIENTED_EDGE('',*,*,#244,.T.);
#203=ORIENTED_EDGE('',*,*,#240,.T.);
#204=ORIENTED_EDGE('',*,*,#245,.F.);
#205=ORIENTED_EDGE('',*,*,#246,.F.);
#206=ORIENTED_EDGE('',*,*,#246,.T.);
#207=ORIENTED_EDGE('',*,*,#247,.F.);
#208=ORIENTED_EDGE('',*,*,#238,.T.);
#209=ORIENTED_EDGE('',*,*,#247,.T.);
#210=ORIENTED_EDGE('',*,*,#248,.F.);
#211=ORIENTED_EDGE('',*,*,#249,.T.);
#212=ORIENTED_EDGE('',*,*,#249,.F.);
#213=ORIENTED_EDGE('',*,*,#250,.T.);
#214=ORIENTED_EDGE('',*,*,#248,.T.);
#215=ORIENTED_EDGE('',*,*,#239,.T.);
#216=ORIENTED_EDGE('',*,*,#251,.F.);
#217=ORIENTED_EDGE('',*,*,#245,.T.);
#218=ORIENTED_EDGE('',*,*,#251,.T.);
#219=ORIENTED_EDGE('',*,*,#241,.T.);
#220=ORIENTED_EDGE('',*,*,#243,.F.);
#221=ORIENTED_EDGE('',*,*,#250,.F.);
#222=ORIENTED_EDGE('',*,*,#244,.F.);
#223=VERTEX_POINT('',#409);
#224=VERTEX_POINT('',#471);
#225=VERTEX_POINT('',#474);
#226=VERTEX_POINT('',#476);
#227=VERTEX_POINT('',#479);
#228=VERTEX_POINT('',#482);
#229=VERTEX_POINT('',#485);
#230=VERTEX_POINT('',#488);
#231=VERTEX_POINT('',#490);
#232=VERTEX_POINT('',#493);
#233=VERTEX_POINT('',#495);
#234=VERTEX_POINT('',#498);
#235=VERTEX_POINT('',#500);
#236=VERTEX_POINT('',#503);
#237=VERTEX_POINT('',#506);
#238=EDGE_CURVE('',#223,#223,#252,.T.);
#239=EDGE_CURVE('',#224,#224,#253,.T.);
#240=EDGE_CURVE('',#225,#225,#107,.T.);
#241=EDGE_CURVE('',#226,#226,#108,.T.);
#242=EDGE_CURVE('',#227,#227,#109,.T.);
#243=EDGE_CURVE('',#228,#228,#110,.T.);
#244=EDGE_CURVE('',#229,#229,#111,.T.);
#245=EDGE_CURVE('',#230,#230,#112,.T.);
#246=EDGE_CURVE('',#231,#231,#113,.T.);
#247=EDGE_CURVE('',#232,#232,#114,.T.);
#248=EDGE_CURVE('',#234,#234,#115,.T.);
#249=EDGE_CURVE('',#235,#235,#116,.T.);
#250=EDGE_CURVE('',#236,#236,#117,.T.);
#251=EDGE_CURVE('',#237,#237,#118,.T.);
#252=B_SPLINE_CURVE_WITH_KNOTS('',3,(#336,#337,#338,#339,#340,#341,#342,
#343,#344,#345,#346,#347,#348,#349,#350,#351,#352,#353,#354,#355,#356,#357,
#358,#359,#360,#361,#362,#363,#364,#365,#366,#367,#368,#369,#370,#371,#372,
#373,#374,#375,#376,#377,#378,#379,#380,#381,#382,#383,#384,#385,#386,#387,
#388,#389,#390,#391,#392,#393,#394,#395,#396,#397,#398,#399,#400,#401,#402,
#403,#404,#405,#406,#407,#408),.UNSPECIFIED.,.T.,.F.,(1,3,3,3,3,3,3,3,3,
3,3,3,3,3,3,3,3,3,3,3,3,3,3,3,3,3,1),(-0.0209359267317476,0.,0.0224367245233439,
0.0574762311688096,0.127190179807356,0.178102177483162,0.218338963134907,
0.249672448346205,0.288905942841713,0.327825196409246,0.382803872940285,
0.452830743436173,0.478583319837836,0.499475357122777,0.521959216199175,
0.55707233306228,0.626932735122989,0.677951687452786,0.718273001559931,0.749672311312355,
0.788988226589864,0.827989240789611,0.883083415202543,0.953257396464397,
0.979064073268252,1.,1.02243672452334),.UNSPECIFIED.);
#253=B_SPLINE_CURVE_WITH_KNOTS('',3,(#410,#411,#412,#413,#414,#415,#416,
#417,#418,#419,#420,#421,#422,#423,#424,#425,#426,#427,#428,#429,#430,#431,
#432,#433,#434,#435,#436,#437,#438,#439,#440,#441,#442,#443,#444,#445,#446,
#447,#448,#449,#450,#451,#452,#453,#454,#455,#456,#457,#458,#459,#460,#461,
#462,#463,#464,#465,#466,#467,#468,#469,#470),.UNSPECIFIED.,.T.,.F.,(1,3,
3,3,3,3,3,3,3,3,3,3,3,3,3,3,3,3,3,3,3,3,1),(-0.0391310177546612,0.,0.0514244199745074,
0.102724541057225,0.155900044305797,0.210996242773233,0.249997635667805,
0.301301493137932,0.352457842299913,0.405796534495749,0.460868136808746,
0.499998997676991,0.551423623827429,0.602723950587726,0.655899667032847,
0.710996086397475,0.749997635661151,0.80130169882388,0.852458253087056,0.90579715913377,
0.960868982245339,1.,1.05142441997451),.UNSPECIFIED.);
#254=AXIS2_PLACEMENT_3D('',#335,#281,#282);
#255=AXIS2_PLACEMENT_3D('',#472,#283,#284);
#256=AXIS2_PLACEMENT_3D('',#473,#285,#286);
#257=AXIS2_PLACEMENT_3D('',#475,#287,#288);
#258=AXIS2_PLACEMENT_3D('',#477,#289,#290);
#259=AXIS2_PLACEMENT_3D('',#478,#291,#292);
#260=AXIS2_PLACEMENT_3D('',#480,#293,#294);
#261=AXIS2_PLACEMENT_3D('',#481,#295,#296);
#262=AXIS2_PLACEMENT_3D('',#483,#297,#298);
#263=AXIS2_PLACEMENT_3D('',#484,#299,#300);
#264=AXIS2_PLACEMENT_3D('',#486,#301,#302);
#265=AXIS2_PLACEMENT_3D('',#487,#303,#304);
#266=AXIS2_PLACEMENT_3D('',#489,#305,#306);
#267=AXIS2_PLACEMENT_3D('',#491,#307,#308);
#268=AXIS2_PLACEMENT_3D('',#492,#309,#310);
#269=AXIS2_PLACEMENT_3D('',#494,#311,#312);
#270=AXIS2_PLACEMENT_3D('',#496,#313,#314);
#271=AXIS2_PLACEMENT_3D('',#497,#315,#316);
#272=AXIS2_PLACEMENT_3D('',#499,#317,#318);
#273=AXIS2_PLACEMENT_3D('',#501,#319,#320);
#274=AXIS2_PLACEMENT_3D('',#502,#321,#322);
#275=AXIS2_PLACEMENT_3D('',#504,#323,#324);
#276=AXIS2_PLACEMENT_3D('',#505,#325,#326);
#277=AXIS2_PLACEMENT_3D('',#507,#327,#328);
#278=AXIS2_PLACEMENT_3D('',#508,#329,#330);
#279=AXIS2_PLACEMENT_3D('',#509,#331,#332);
#280=AXIS2_PLACEMENT_3D('',#510,#333,#334);
#281=DIRECTION('',(0.,0.,1.));
#282=DIRECTION('',(1.,0.,0.));
#283=DIRECTION('',(0.,0.,1.));
#284=DIRECTION('',(-1.,0.,0.));
#285=DIRECTION('',(0.,1.,0.));
#286=DIRECTION('',(0.,0.,-1.));
#287=DIRECTION('',(0.,-1.,0.));
#288=DIRECTION('',(0.,0.,-1.));
#289=DIRECTION('',(0.,1.,0.));
#290=DIRECTION('',(0.,-1.91630710767092E-017,-1.));
#291=DIRECTION('',(0.,1.,0.));
#292=DIRECTION('',(0.,0.,1.));
#293=DIRECTION('',(1.,0.,6.12323399573677E-017));
#294=DIRECTION('',(0.,0.,1.));
#295=DIRECTION('',(0.,-1.,0.));
#296=DIRECTION('',(0.,0.,-1.));
#297=DIRECTION('',(0.,1.,0.));
#298=DIRECTION('',(0.,0.,-1.));
#299=DIRECTION('',(0.,-1.,0.));
#300=DIRECTION('',(0.,0.,-1.));
#301=DIRECTION('',(0.,1.,0.));
#302=DIRECTION('',(0.,0.,-1.));
#303=DIRECTION('',(0.,-1.,0.));
#304=DIRECTION('',(0.,0.,1.));
#305=DIRECTION('',(0.,1.,1.22464679914735E-016));
#306=DIRECTION('',(0.,0.,1.));
#307=DIRECTION('',(0.,1.,1.22464679914735E-016));
#308=DIRECTION('',(0.,1.69081432849226E-016,-1.));
#309=DIRECTION('',(0.,1.,1.22464679914735E-016));
#310=DIRECTION('',(0.,0.,1.));
#311=DIRECTION('',(0.,1.,1.22464679914735E-016));
#312=DIRECTION('',(0.,0.,-1.));
#313=DIRECTION('',(0.,1.,1.22464679914735E-016));
#314=DIRECTION('',(0.,7.76052498696118E-017,-1.));
#315=DIRECTION('',(0.,1.,0.));
#316=DIRECTION('',(0.,0.,1.));
#317=DIRECTION('',(0.,1.,0.));
#318=DIRECTION('',(0.,0.,1.));
#319=DIRECTION('',(0.,1.,0.));
#320=DIRECTION('',(0.,-4.22644199972449E-016,-1.));
#321=DIRECTION('',(0.,1.,0.));
#322=DIRECTION('',(0.,0.,1.));
#323=DIRECTION('',(0.,1.,0.));
#324=DIRECTION('',(0.,0.,-1.));
#325=DIRECTION('',(0.,1.,0.));
#326=DIRECTION('',(0.,0.,1.));
#327=DIRECTION('',(0.,-1.,0.));
#328=DIRECTION('',(0.,0.,1.));
#329=DIRECTION('',(0.,1.,0.));
#330=DIRECTION('',(0.,0.,-1.));
#331=DIRECTION('',(0.,-1.,0.));
#332=DIRECTION('',(0.,0.,1.));
#333=DIRECTION('',(0.,-1.,0.));
#334=DIRECTION('',(0.,0.,1.));
#335=CARTESIAN_POINT('',(0.,0.,0.));
#336=CARTESIAN_POINT('',(0.3,1.4,-0.111355287256602));
#337=CARTESIAN_POINT('',(0.3,1.38437015860426,-0.111355287256602));
#338=CARTESIAN_POINT('',(0.298709416796129,1.36858879701607,-0.114926057979321));
#339=CARTESIAN_POINT('',(0.296472924335937,1.3541327444063,-0.120431744718943));
#340=CARTESIAN_POINT('',(0.292971631110314,1.33150137856324,-0.129051055549161));
#341=CARTESIAN_POINT('',(0.287186683807294,1.31086714709588,-0.141973565586169));
#342=CARTESIAN_POINT('',(0.279783224402122,1.29173482857744,-0.15531048690659));
#343=CARTESIAN_POINT('',(0.265151637158402,1.25392329044953,-0.181668479458831));
#344=CARTESIAN_POINT('',(0.243532198771572,1.22010546540041,-0.211122221065145));
#345=CARTESIAN_POINT('',(0.215037287804264,1.19081356436474,-0.236978827859819));
#346=CARTESIAN_POINT('',(0.194157382311578,1.16934965714187,-0.255925491944985));
#347=CARTESIAN_POINT('',(0.168998058563537,1.15000279165733,-0.273612731273789));
#348=CARTESIAN_POINT('',(0.140230496203988,1.13479176495745,-0.287637633028754));
#349=CARTESIAN_POINT('',(0.117463115815439,1.12275337162235,-0.298737296920203));
#350=CARTESIAN_POINT('',(0.0918707345086855,1.11309369957961,-0.307751101194862));
#351=CARTESIAN_POINT('',(0.0650388474422753,1.1071349315412,-0.313320839274027));
#352=CARTESIAN_POINT('',(0.0440635533909203,1.10247678314186,-0.317674871240187));
#353=CARTESIAN_POINT('',(0.0219230221779158,1.1,-0.320000000000001));
#354=CARTESIAN_POINT('',(6.32814623600201E-017,1.1,-0.320000000000001));
#355=CARTESIAN_POINT('',(-0.0272853946247066,1.1,-0.320000000000001));
#356=CARTESIAN_POINT('',(-0.0549614780958681,1.10389217077215,-0.316343692733266));
#357=CARTESIAN_POINT('',(-0.0804607692877152,1.11099123783935,-0.309719331985638));
#358=CARTESIAN_POINT('',(-0.105843755806818,1.11805792539193,-0.303125185572325));
#359=CARTESIAN_POINT('',(-0.1297802718206,1.12840339925479,-0.293497361563119));
#360=CARTESIAN_POINT('',(-0.151076652827346,1.14081696627577,-0.282091908729223));
#361=CARTESIAN_POINT('',(-0.181042118775797,1.15828370486144,-0.266043655816555));
#362=CARTESIAN_POINT('',(-0.2067033200571,1.18024544547816,-0.24606638857898));
#363=CARTESIAN_POINT('',(-0.227504626188609,1.20444528882216,-0.225036985990543));
#364=CARTESIAN_POINT('',(-0.253938744168307,1.23519823818029,-0.198313005027478));
#365=CARTESIAN_POINT('',(-0.273614792068098,1.2701193537848,-0.168274238828122));
#366=CARTESIAN_POINT('',(-0.286130100505924,1.30983589636408,-0.143281420932618));
#367=CARTESIAN_POINT('',(-0.290780060990724,1.32459225290966,-0.133995543864926));
#368=CARTESIAN_POINT('',(-0.294497045380076,1.34032943337289,-0.125355092997148));
#369=CARTESIAN_POINT('',(-0.296925137879371,1.3571577020304,-0.119312457418815));
#370=CARTESIAN_POINT('',(-0.298884513806777,1.37073745836875,-0.114436286229413));
#371=CARTESIAN_POINT('',(-0.300000000003376,1.38543888810294,-0.111355287247564));
#372=CARTESIAN_POINT('',(-0.300000000000003,1.40000000006949,-0.111355287256651));
#373=CARTESIAN_POINT('',(-0.299999999996383,1.41562984148009,-0.111355287266404));
#374=CARTESIAN_POINT('',(-0.29870941678651,1.43141120308026,-0.114926058005148));
#375=CARTESIAN_POINT('',(-0.296472924319563,1.44586725569954,-0.120431744759252));
#376=CARTESIAN_POINT('',(-0.292971631080293,1.46849862157733,-0.129051055619703));
#377=CARTESIAN_POINT('',(-0.287186683757383,1.48913285307265,-0.141973565691321));
#378=CARTESIAN_POINT('',(-0.279783224326809,1.50826517161718,-0.15531048704226));
#379=CARTESIAN_POINT('',(-0.265151637052578,1.54607670974579,-0.181668479619346));
#380=CARTESIAN_POINT('',(-0.243532198628623,1.57989453479937,-0.211122221236204));
#381=CARTESIAN_POINT('',(-0.215037287615691,1.60918643582911,-0.236978828030932));
#382=CARTESIAN_POINT('',(-0.194157382118505,1.63065034301789,-0.255925492089887));
#383=CARTESIAN_POINT('',(-0.168998058372121,1.64999720846907,-0.273612731389566));
#384=CARTESIAN_POINT('',(-0.140230496022567,1.66520823513848,-0.287637633117201));
#385=CARTESIAN_POINT('',(-0.117463115630622,1.67724662845545,-0.298737296992532));
#386=CARTESIAN_POINT('',(-0.091870734323374,1.68690630047894,-0.307751101249498));
#387=CARTESIAN_POINT('',(-0.0650388472612671,1.692865068499,-0.313320839311601));
#388=CARTESIAN_POINT('',(-0.0440635532644128,1.69752321687263,-0.317674871253807));
#389=CARTESIAN_POINT('',(-0.0219230221154677,1.70000000000001,-0.320000000000006));
#390=CARTESIAN_POINT('',(8.41526907257172E-014,1.7,-0.320000000000001));
#391=CARTESIAN_POINT('',(0.0272853946247949,1.69999999999999,-0.319999999999994));
#392=CARTESIAN_POINT('',(0.0549614780959585,1.69610782922783,-0.316343692733251));
#393=CARTESIAN_POINT('',(0.0804607692878056,1.68900876216062,-0.309719331985614));
#394=CARTESIAN_POINT('',(0.105843755806908,1.68194207460803,-0.303125185572293));
#395=CARTESIAN_POINT('',(0.129780271820688,1.67159660074517,-0.29349736156308));
#396=CARTESIAN_POINT('',(0.151076652827431,1.65918303372418,-0.282091908729177));
#397=CARTESIAN_POINT('',(0.181042118775884,1.64171629513849,-0.266043655816496));
#398=CARTESIAN_POINT('',(0.206703320057185,1.61975455452176,-0.24606638857891));
#399=CARTESIAN_POINT('',(0.227504626188689,1.59555471117775,-0.225036985990462));
#400=CARTESIAN_POINT('',(0.253938744168371,1.56480176181961,-0.198313005027394));
#401=CARTESIAN_POINT('',(0.273614792068148,1.52988064621509,-0.168274238828037));
#402=CARTESIAN_POINT('',(0.28613010050596,1.49016410363581,-0.143281420932546));
#403=CARTESIAN_POINT('',(0.290780060992322,1.47540774708525,-0.133995543861731));
#404=CARTESIAN_POINT('',(0.294497045382641,1.45967056661626,-0.125355092991129));
#405=CARTESIAN_POINT('',(0.296925137881868,1.4428422979523,-0.119312457412602));
#406=CARTESIAN_POINT('',(0.298884513804681,1.42926254164017,-0.114436286234333));
#407=CARTESIAN_POINT('',(0.3,1.41456111193774,-0.111355287256602));
#408=CARTESIAN_POINT('',(0.3,1.4,-0.111355287256602));
#409=CARTESIAN_POINT('',(0.3,1.4,-0.111355287256602));
#410=CARTESIAN_POINT('',(-2.59077596508747E-017,1.7,-0.829999999999997));
#411=CARTESIAN_POINT('',(-0.0324122651266415,1.7,-0.829999999999997));
#412=CARTESIAN_POINT('',(-0.0652686063217111,1.69458102203227,-0.828000434637212));
#413=CARTESIAN_POINT('',(-0.0957993336748129,1.68429296098824,-0.824452841384792));
#414=CARTESIAN_POINT('',(-0.126288113723717,1.67401903509472,-0.820910122302962));
#415=CARTESIAN_POINT('',(-0.155288697368064,1.65865206648607,-0.815760120558187));
#416=CARTESIAN_POINT('',(-0.180724002173372,1.63945528818224,-0.810085696107785));
#417=CARTESIAN_POINT('',(-0.207080101827688,1.61956355871839,-0.804205849279118));
#418=CARTESIAN_POINT('',(-0.23033278299819,1.59503350546258,-0.797634749162466));
#419=CARTESIAN_POINT('',(-0.248792081010338,1.5676380041236,-0.791834894675993));
#420=CARTESIAN_POINT('',(-0.267883495377857,1.53930437694427,-0.78583643118081));
#421=CARTESIAN_POINT('',(-0.282374196798496,1.50704219200132,-0.780542491127609));
#422=CARTESIAN_POINT('',(-0.290843391762924,1.47355352790885,-0.777373862094574));
#423=CARTESIAN_POINT('',(-0.296882386253983,1.44967429749595,-0.775114458059706));
#424=CARTESIAN_POINT('',(-0.299999999999941,1.42473442957101,-0.773886296557854));
#425=CARTESIAN_POINT('',(-0.3,1.40000000000071,-0.773886296557831));
#426=CARTESIAN_POINT('',(-0.300000000000077,1.36766572830661,-0.773886296557802));
#427=CARTESIAN_POINT('',(-0.294605264092641,1.33488991065988,-0.776032419847908));
#428=CARTESIAN_POINT('',(-0.284374989165504,1.30444443743497,-0.7797633394416));
#429=CARTESIAN_POINT('',(-0.274161563268825,1.27404910721299,-0.783488114295456));
#430=CARTESIAN_POINT('',(-0.258898042057575,1.24514298756553,-0.788840401167502));
#431=CARTESIAN_POINT('',(-0.239813989522281,1.21975225263708,-0.794600056902466));
#432=CARTESIAN_POINT('',(-0.219927112142241,1.19329338436593,-0.800602008906144));
#433=CARTESIAN_POINT('',(-0.195355674517134,1.16992276418445,-0.80717004865166));
#434=CARTESIAN_POINT('',(-0.167876264352981,1.15136862654346,-0.812845348062523));
#435=CARTESIAN_POINT('',(-0.139553973780057,1.13224537482666,-0.818694726853501));
#436=CARTESIAN_POINT('',(-0.107283178008154,1.11771742440542,-0.823723361562654));
#437=CARTESIAN_POINT('',(-0.0738029853013017,1.10921980920184,-0.826712234916486));
#438=CARTESIAN_POINT('',(-0.0498387816701427,1.10313744931517,-0.828851588483119));
#439=CARTESIAN_POINT('',(-0.0248164258335007,1.1,-0.829999999999997));
#440=CARTESIAN_POINT('',(5.04619954169415E-017,1.1,-0.829999999999997));
#441=CARTESIAN_POINT('',(0.0324122651266415,1.1,-0.829999999999997));
#442=CARTESIAN_POINT('',(0.0652686063217111,1.10541897796773,-0.828000434637212));
#443=CARTESIAN_POINT('',(0.0957993336748129,1.11570703901176,-0.824452841384792));
#444=CARTESIAN_POINT('',(0.126288113723717,1.12598096490528,-0.820910122302962));
#445=CARTESIAN_POINT('',(0.155288697368064,1.14134793351393,-0.815760120558187));
#446=CARTESIAN_POINT('',(0.180724002173372,1.16054471181776,-0.810085696107785));
#447=CARTESIAN_POINT('',(0.207080101827688,1.18043644128161,-0.804205849279118));
#448=CARTESIAN_POINT('',(0.23033278299819,1.20496649453742,-0.797634749162466));
#449=CARTESIAN_POINT('',(0.248792081010338,1.2323619958764,-0.791834894675993));
#450=CARTESIAN_POINT('',(0.267883495377857,1.26069562305573,-0.78583643118081));
#451=CARTESIAN_POINT('',(0.282374196798496,1.29295780799868,-0.780542491127609));
#452=CARTESIAN_POINT('',(0.290843391762924,1.32644647209115,-0.777373862094574));
#453=CARTESIAN_POINT('',(0.296882386254107,1.35032570250454,-0.77511445805966));
#454=CARTESIAN_POINT('',(0.300000000000068,1.37526557043002,-0.773886296557805));
#455=CARTESIAN_POINT('',(0.3,1.40000000000083,-0.773886296557831));
#456=CARTESIAN_POINT('',(0.299999999999911,1.43233427169495,-0.773886296557866));
#457=CARTESIAN_POINT('',(0.294605264092298,1.46511008934168,-0.776032419848041));
#458=CARTESIAN_POINT('',(0.284374989164992,1.49555556256656,-0.779763339441786));
#459=CARTESIAN_POINT('',(0.274161563268143,1.5259508927885,-0.783488114295696));
#460=CARTESIAN_POINT('',(0.258898042056727,1.5548570124359,-0.788840401167784));
#461=CARTESIAN_POINT('',(0.239813989521279,1.58024774736425,-0.794600056902769));
#462=CARTESIAN_POINT('',(0.219927112141073,1.60670661563532,-0.800602008906469));
#463=CARTESIAN_POINT('',(0.195355674515805,1.63007723581669,-0.807170048651987));
#464=CARTESIAN_POINT('',(0.167876264351511,1.64863137345754,-0.812845348062826));
#465=CARTESIAN_POINT('',(0.139553973778474,1.66775462517417,-0.818694726853775));
#466=CARTESIAN_POINT('',(0.10728317800648,1.68228257559521,-0.823723361562874));
#467=CARTESIAN_POINT('',(0.0738029852995775,1.6907801907986,-0.82671223491664));
#468=CARTESIAN_POINT('',(0.0498387816689483,1.69686255068498,-0.828851588483176));
#469=CARTESIAN_POINT('',(0.0248164258329107,1.7,-0.829999999999997));
#470=CARTESIAN_POINT('',(-2.59077596508747E-017,1.7,-0.829999999999997));
#471=CARTESIAN_POINT('',(-2.59077596508747E-017,1.7,-0.829999999999997));
#472=CARTESIAN_POINT('',(0.,1.4,-1.));
#473=CARTESIAN_POINT('',(0.,-1.75000000000001,0.));
#474=CARTESIAN_POINT('',(0.,-1.75000000000001,-1.05));
#475=CARTESIAN_POINT('',(0.,-1.9,0.));
#476=CARTESIAN_POINT('',(0.,-1.9,-0.950000000000004));
#477=CARTESIAN_POINT('',(0.,-1.9,0.));
#478=CARTESIAN_POINT('',(0.,-9.5,0.));
#479=CARTESIAN_POINT('',(0.,-9.5,0.5));
#480=CARTESIAN_POINT('',(0.,-9.5,0.));
#481=CARTESIAN_POINT('',(0.,-1.9,0.));
#482=CARTESIAN_POINT('',(0.,-1.9,-0.5));
#483=CARTESIAN_POINT('',(0.,-10.,0.));
#484=CARTESIAN_POINT('',(0.,0.,0.));
#485=CARTESIAN_POINT('',(0.,0.,-1.05));
#486=CARTESIAN_POINT('',(0.,-1.9,0.));
#487=CARTESIAN_POINT('',(0.,4.8,1.53170417287136E-032));
#488=CARTESIAN_POINT('',(0.,4.8,0.62));
#489=CARTESIAN_POINT('',(0.,4.5,-3.67394039744205E-017));
#490=CARTESIAN_POINT('',(0.,4.5,0.32));
#491=CARTESIAN_POINT('',(0.,4.5,-3.67394039744205E-017));
#492=CARTESIAN_POINT('',(0.,0.799999999999999,-4.89858719658941E-016));
#493=CARTESIAN_POINT('',(0.,0.799999999999999,0.32));
#494=CARTESIAN_POINT('',(0.,4.8,0.));
#495=CARTESIAN_POINT('',(0.,0.615247913859317,-5.1248432475174E-016));
#496=CARTESIAN_POINT('',(0.,0.799999999999999,-4.89858719658941E-016));
#497=CARTESIAN_POINT('',(0.,0.7,0.));
#498=CARTESIAN_POINT('',(0.,0.7,0.829999999999997));
#499=CARTESIAN_POINT('',(0.,0.15,0.));
#500=CARTESIAN_POINT('',(0.,0.15,0.729999999999997));
#501=CARTESIAN_POINT('',(0.,0.7,0.));
#502=CARTESIAN_POINT('',(0.,0.,0.));
#503=CARTESIAN_POINT('',(0.,0.,0.729999999999997));
#504=CARTESIAN_POINT('',(0.,4.8,0.));
#505=CARTESIAN_POINT('',(0.,4.8,0.));
#506=CARTESIAN_POINT('',(0.,4.8,0.829999999999997));
#507=CARTESIAN_POINT('',(0.,4.8,0.));
#508=CARTESIAN_POINT('',(0.,4.8,0.));
#509=CARTESIAN_POINT('',(0.,-1.9,0.));
#510=CARTESIAN_POINT('',(0.,0.,0.));
#511=(
GEOMETRIC_REPRESENTATION_CONTEXT(3)
GLOBAL_UNCERTAINTY_ASSIGNED_CONTEXT((#512))
GLOBAL_UNIT_ASSIGNED_CONTEXT((#518,#514,#513))
REPRESENTATION_CONTEXT('SGM-0','TOP_LEVEL_ASSEMBLY_PART')
);
#512=UNCERTAINTY_MEASURE_WITH_UNIT(LENGTH_MEASURE(0.0508),#518,
'DISTANCE_ACCURACY_VALUE','Maximum Tolerance applied to model');
#513=(
NAMED_UNIT(*)
SI_UNIT($,.STERADIAN.)
SOLID_ANGLE_UNIT()
);
#514=(
CONVERSION_BASED_UNIT('DEGREE',#516)
NAMED_UNIT(#515)
PLANE_ANGLE_UNIT()
);
#515=DIMENSIONAL_EXPONENTS(0.,0.,0.,0.,0.,0.,0.);
#516=PLANE_ANGLE_MEASURE_WITH_UNIT(PLANE_ANGLE_MEASURE(0.0174532925),#517);
#517=(
NAMED_UNIT(*)
PLANE_ANGLE_UNIT()
SI_UNIT($,.RADIAN.)
);
#518=(
LENGTH_UNIT()
NAMED_UNIT(*)
SI_UNIT(.MILLI.,.METRE.)
);
ENDSEC;
END-ISO-10303-21;
