ISO-10303-21;
HEADER;
/* Generated by software containing ST-Developer
 * from STEP Tools, Inc. (www.steptools.com) 
 */
/* OPTION: using custom schema-name function */

FILE_DESCRIPTION(
/* description */ (''),
/* implementation_level */ '2;1');

FILE_NAME(
/* name */ 'FM10S-020-4-01_1010090000007.stp',
/* time_stamp */ '2023-07-31T14:44:54+08:00',
/* author */ (''),
/* organization */ (''),
/* preprocessor_version */ 'ST-DEVELOPER v11',
/* originating_system */ 'SIEMENS PLM Software NX 7.5',
/* authorisation */ '');

FILE_SCHEMA (('CONFIG_CONTROL_DESIGN'));
ENDSEC;

DATA;
#10=SHAPE_REPRESENTATION_RELATIONSHIP('None',
'relationship between 20A(4+2+12)-None and 20A(4+2+12)-None',#94,#11);
#11=ADVANCED_BREP_SHAPE_REPRESENTATION('20A(4+2+12)-None',(#95),#523);
#12=CC_DESIGN_APPROVAL(#24,(#82));
#13=CC_DESIGN_APPROVAL(#25,(#84));
#14=CC_DESIGN_APPROVAL(#26,(#31));
#15=APPROVAL_PERSON_ORGANIZATION(#69,#24,#18);
#16=APPROVAL_PERSON_ORGANIZATION(#70,#25,#19);
#17=APPROVAL_PERSON_ORGANIZATION(#71,#26,#20);
#18=APPROVAL_ROLE('approver');
#19=APPROVAL_ROLE('approver');
#20=APPROVAL_ROLE('approver');
#21=APPROVAL_DATE_TIME(#39,#24);
#22=APPROVAL_DATE_TIME(#40,#25);
#23=APPROVAL_DATE_TIME(#41,#26);
#24=APPROVAL(#27,'');
#25=APPROVAL(#28,'');
#26=APPROVAL(#29,'');
#27=APPROVAL_STATUS('not_yet_approved');
#28=APPROVAL_STATUS('not_yet_approved');
#29=APPROVAL_STATUS('not_yet_approved');
#30=CC_DESIGN_SECURITY_CLASSIFICATION(#31,(#84));
#31=SECURITY_CLASSIFICATION(' ',' ',#32);
#32=SECURITY_CLASSIFICATION_LEVEL('unclassified');
#33=CC_DESIGN_DATE_AND_TIME_ASSIGNMENT(#37,#35,(#82));
#34=CC_DESIGN_DATE_AND_TIME_ASSIGNMENT(#38,#36,(#31));
#35=DATE_TIME_ROLE('creation_date');
#36=DATE_TIME_ROLE('classification_date');
#37=DATE_AND_TIME(#52,#42);
#38=DATE_AND_TIME(#53,#43);
#39=DATE_AND_TIME(#54,#44);
#40=DATE_AND_TIME(#55,#45);
#41=DATE_AND_TIME(#56,#46);
#42=LOCAL_TIME(14,7,0.,#47);
#43=LOCAL_TIME(14,7,0.,#48);
#44=LOCAL_TIME(14,7,0.,#49);
#45=LOCAL_TIME(14,7,0.,#50);
#46=LOCAL_TIME(14,7,0.,#51);
#47=COORDINATED_UNIVERSAL_TIME_OFFSET(8,0,.AHEAD.);
#48=COORDINATED_UNIVERSAL_TIME_OFFSET(8,0,.AHEAD.);
#49=COORDINATED_UNIVERSAL_TIME_OFFSET(8,0,.AHEAD.);
#50=COORDINATED_UNIVERSAL_TIME_OFFSET(8,0,.AHEAD.);
#51=COORDINATED_UNIVERSAL_TIME_OFFSET(8,0,.AHEAD.);
#52=CALENDAR_DATE(2023,31,7);
#53=CALENDAR_DATE(2023,31,7);
#54=CALENDAR_DATE(2023,31,7);
#55=CALENDAR_DATE(2023,31,7);
#56=CALENDAR_DATE(2023,31,7);
#57=CC_DESIGN_PERSON_AND_ORGANIZATION_ASSIGNMENT(#65,#61,(#82,#84));
#58=CC_DESIGN_PERSON_AND_ORGANIZATION_ASSIGNMENT(#66,#62,(#86));
#59=CC_DESIGN_PERSON_AND_ORGANIZATION_ASSIGNMENT(#67,#63,(#84));
#60=CC_DESIGN_PERSON_AND_ORGANIZATION_ASSIGNMENT(#68,#64,(#31));
#61=PERSON_AND_ORGANIZATION_ROLE('creator');
#62=PERSON_AND_ORGANIZATION_ROLE('design_owner');
#63=PERSON_AND_ORGANIZATION_ROLE('design_supplier');
#64=PERSON_AND_ORGANIZATION_ROLE('classification_officer');
#65=PERSON_AND_ORGANIZATION(#79,#72);
#66=PERSON_AND_ORGANIZATION(#79,#73);
#67=PERSON_AND_ORGANIZATION(#79,#74);
#68=PERSON_AND_ORGANIZATION(#79,#75);
#69=PERSON_AND_ORGANIZATION(#79,#76);
#70=PERSON_AND_ORGANIZATION(#79,#77);
#71=PERSON_AND_ORGANIZATION(#79,#78);
#72=ORGANIZATION('','',' ');
#73=ORGANIZATION('','',' ');
#74=ORGANIZATION('','',' ');
#75=ORGANIZATION('','',' ');
#76=ORGANIZATION('','',' ');
#77=ORGANIZATION('','',' ');
#78=ORGANIZATION('','',' ');
#79=PERSON('','','',(' '),$,$);
#80=SHAPE_DEFINITION_REPRESENTATION(#81,#94);
#81=PRODUCT_DEFINITION_SHAPE('NONE','NONE',#82);
#82=PRODUCT_DEFINITION('','',#84,#83);
#83=DESIGN_CONTEXT('detailed design',#93,'design');
#84=PRODUCT_DEFINITION_FORMATION_WITH_SPECIFIED_SOURCE('','',#86,.NOT_KNOWN.);
#85=PRODUCT_RELATED_PRODUCT_CATEGORY('detail','',(#86));
#86=PRODUCT('20A(4+2+12)','20A(4+2+12)','',(#91));
#87=PRODUCT_CATEGORY_RELATIONSHIP(' ',' ',#89,#90);
#88=PRODUCT_CATEGORY_RELATIONSHIP('','',#90,#85);
#89=PRODUCT_CATEGORY('part',' ');
#90=PRODUCT_CATEGORY(' ','');
#91=MECHANICAL_CONTEXT('NONE',#93,'mechanical');
#92=APPLICATION_PROTOCOL_DEFINITION('international standard',
'config_control_design',1994,#93);
#93=APPLICATION_CONTEXT(
'configuration controlled 3D designs of mechanical parts and assemblies');
#94=SHAPE_REPRESENTATION('20A(4+2+12)-None',(#254),#523);
#95=MANIFOLD_SOLID_BREP('-1',#96);
#96=CLOSED_SHELL('',(#119,#120,#121,#122,#123,#124,#125,#126,#127,#128,#129,
#130,#131,#132));
#97=PLANE('',#276);
#98=PLANE('',#277);
#99=PLANE('',#278);
#100=PLANE('',#279);
#101=FACE_OUTER_BOUND('',#188,.T.);
#102=(
BOUNDED_SURFACE()
B_SPLINE_SURFACE(3,3,((#483,#484,#485,#486,#487,#488,#489),(#490,#491,#492,
#493,#494,#495,#496),(#497,#498,#499,#500,#501,#502,#503),(#504,#505,#506,
#507,#508,#509,#510)),.UNSPECIFIED.,.F.,.T.,.F.)
B_SPLINE_SURFACE_WITH_KNOTS((4,4),(1,3,3,3,1),(0.,1.),(-0.5,0.,0.5,1.,1.5),
 .UNSPECIFIED.)
GEOMETRIC_REPRESENTATION_ITEM()
RATIONAL_B_SPLINE_SURFACE(((1.,0.333333333333333,0.333333333333333,1.,0.333333333333333,
0.333333333333333,1.),(0.804737854124365,0.268245951374788,0.268245951374788,
0.804737854124365,0.268245951374788,0.268245951374788,0.804737854124365),
(0.804737854124365,0.268245951374788,0.268245951374788,0.804737854124365,
0.268245951374788,0.268245951374788,0.804737854124365),(1.,0.333333333333333,
0.333333333333333,1.,0.333333333333333,0.333333333333333,1.)))
REPRESENTATION_ITEM('')
SURFACE()
);
#103=VERTEX_LOOP('',#230);
#104=CONICAL_SURFACE('',#260,1.75,16.6992442339934);
#105=CONICAL_SURFACE('',#264,1664.2794823505,58.9999999999997);
#106=CONICAL_SURFACE('',#266,1.85,16.6992442339936);
#107=CIRCLE('',#256,1.45);
#108=CIRCLE('',#257,1.45);
#109=CIRCLE('',#259,1.75);
#110=CIRCLE('',#261,2.);
#111=CIRCLE('',#262,2.);
#112=CIRCLE('',#265,1.85);
#113=CIRCLE('',#267,1.85);
#114=CIRCLE('',#269,1.5);
#115=CIRCLE('',#270,0.5);
#116=CIRCLE('',#271,2.8);
#117=CIRCLE('',#272,2.8);
#118=CIRCLE('',#274,1.5);
#119=ADVANCED_FACE('',(#139,#140),#133,.F.);
#120=ADVANCED_FACE('',(#141,#142,#143),#134,.F.);
#121=ADVANCED_FACE('',(#144,#145),#104,.F.);
#122=ADVANCED_FACE('',(#146,#147),#135,.T.);
#123=ADVANCED_FACE('',(#148,#149),#105,.F.);
#124=ADVANCED_FACE('',(#150,#151),#106,.T.);
#125=ADVANCED_FACE('',(#152,#153,#154),#136,.T.);
#126=ADVANCED_FACE('',(#155,#156),#102,.T.);
#127=ADVANCED_FACE('',(#157,#158),#137,.T.);
#128=ADVANCED_FACE('',(#159,#160),#138,.T.);
#129=ADVANCED_FACE('',(#101),#97,.F.);
#130=ADVANCED_FACE('',(#161,#162),#98,.F.);
#131=ADVANCED_FACE('',(#163,#164),#99,.F.);
#132=ADVANCED_FACE('',(#165,#166),#100,.F.);
#133=CYLINDRICAL_SURFACE('',#255,0.399999999999999);
#134=CYLINDRICAL_SURFACE('',#258,1.45);
#135=CYLINDRICAL_SURFACE('',#263,2.);
#136=CYLINDRICAL_SURFACE('',#268,1.85);
#137=CYLINDRICAL_SURFACE('',#273,2.8);
#138=CYLINDRICAL_SURFACE('',#275,1.5);
#139=FACE_BOUND('',#167,.T.);
#140=FACE_BOUND('',#168,.T.);
#141=FACE_BOUND('',#169,.T.);
#142=FACE_BOUND('',#170,.T.);
#143=FACE_BOUND('',#171,.T.);
#144=FACE_BOUND('',#172,.T.);
#145=FACE_BOUND('',#173,.T.);
#146=FACE_BOUND('',#174,.T.);
#147=FACE_BOUND('',#175,.T.);
#148=FACE_BOUND('',#176,.T.);
#149=FACE_BOUND('',#103,.T.);
#150=FACE_BOUND('',#177,.T.);
#151=FACE_BOUND('',#178,.T.);
#152=FACE_BOUND('',#179,.T.);
#153=FACE_BOUND('',#180,.T.);
#154=FACE_BOUND('',#181,.T.);
#155=FACE_BOUND('',#182,.T.);
#156=FACE_BOUND('',#183,.T.);
#157=FACE_BOUND('',#184,.T.);
#158=FACE_BOUND('',#185,.T.);
#159=FACE_BOUND('',#186,.T.);
#160=FACE_BOUND('',#187,.T.);
#161=FACE_BOUND('',#189,.T.);
#162=FACE_BOUND('',#190,.T.);
#163=FACE_BOUND('',#191,.T.);
#164=FACE_BOUND('',#192,.T.);
#165=FACE_BOUND('',#193,.T.);
#166=FACE_BOUND('',#194,.T.);
#167=EDGE_LOOP('',(#195));
#168=EDGE_LOOP('',(#196));
#169=EDGE_LOOP('',(#197));
#170=EDGE_LOOP('',(#198));
#171=EDGE_LOOP('',(#199));
#172=EDGE_LOOP('',(#200));
#173=EDGE_LOOP('',(#201));
#174=EDGE_LOOP('',(#202));
#175=EDGE_LOOP('',(#203));
#176=EDGE_LOOP('',(#204));
#177=EDGE_LOOP('',(#205));
#178=EDGE_LOOP('',(#206));
#179=EDGE_LOOP('',(#207));
#180=EDGE_LOOP('',(#208));
#181=EDGE_LOOP('',(#209));
#182=EDGE_LOOP('',(#210));
#183=EDGE_LOOP('',(#211));
#184=EDGE_LOOP('',(#212));
#185=EDGE_LOOP('',(#213));
#186=EDGE_LOOP('',(#214));
#187=EDGE_LOOP('',(#215));
#188=EDGE_LOOP('',(#216));
#189=EDGE_LOOP('',(#217));
#190=EDGE_LOOP('',(#218));
#191=EDGE_LOOP('',(#219));
#192=EDGE_LOOP('',(#220));
#193=EDGE_LOOP('',(#221));
#194=EDGE_LOOP('',(#222));
#195=ORIENTED_EDGE('',*,*,#238,.F.);
#196=ORIENTED_EDGE('',*,*,#239,.F.);
#197=ORIENTED_EDGE('',*,*,#240,.T.);
#198=ORIENTED_EDGE('',*,*,#241,.T.);
#199=ORIENTED_EDGE('',*,*,#238,.T.);
#200=ORIENTED_EDGE('',*,*,#242,.F.);
#201=ORIENTED_EDGE('',*,*,#241,.F.);
#202=ORIENTED_EDGE('',*,*,#243,.F.);
#203=ORIENTED_EDGE('',*,*,#244,.T.);
#204=ORIENTED_EDGE('',*,*,#240,.F.);
#205=ORIENTED_EDGE('',*,*,#243,.T.);
#206=ORIENTED_EDGE('',*,*,#245,.F.);
#207=ORIENTED_EDGE('',*,*,#246,.F.);
#208=ORIENTED_EDGE('',*,*,#245,.T.);
#209=ORIENTED_EDGE('',*,*,#239,.T.);
#210=ORIENTED_EDGE('',*,*,#247,.F.);
#211=ORIENTED_EDGE('',*,*,#248,.F.);
#212=ORIENTED_EDGE('',*,*,#249,.F.);
#213=ORIENTED_EDGE('',*,*,#250,.T.);
#214=ORIENTED_EDGE('',*,*,#247,.T.);
#215=ORIENTED_EDGE('',*,*,#251,.T.);
#216=ORIENTED_EDGE('',*,*,#248,.T.);
#217=ORIENTED_EDGE('',*,*,#251,.F.);
#218=ORIENTED_EDGE('',*,*,#249,.T.);
#219=ORIENTED_EDGE('',*,*,#250,.F.);
#220=ORIENTED_EDGE('',*,*,#246,.T.);
#221=ORIENTED_EDGE('',*,*,#242,.T.);
#222=ORIENTED_EDGE('',*,*,#244,.F.);
#223=VERTEX_POINT('',#394);
#224=VERTEX_POINT('',#456);
#225=VERTEX_POINT('',#459);
#226=VERTEX_POINT('',#461);
#227=VERTEX_POINT('',#464);
#228=VERTEX_POINT('',#467);
#229=VERTEX_POINT('',#469);
#230=VERTEX_POINT('',#471);
#231=VERTEX_POINT('',#474);
#232=VERTEX_POINT('',#477);
#233=VERTEX_POINT('',#480);
#234=VERTEX_POINT('',#482);
#235=VERTEX_POINT('',#512);
#236=VERTEX_POINT('',#514);
#237=VERTEX_POINT('',#517);
#238=EDGE_CURVE('',#223,#223,#252,.T.);
#239=EDGE_CURVE('',#224,#224,#253,.T.);
#240=EDGE_CURVE('',#225,#225,#107,.T.);
#241=EDGE_CURVE('',#226,#226,#108,.T.);
#242=EDGE_CURVE('',#227,#227,#109,.T.);
#243=EDGE_CURVE('',#228,#228,#110,.T.);
#244=EDGE_CURVE('',#229,#229,#111,.T.);
#245=EDGE_CURVE('',#231,#231,#112,.T.);
#246=EDGE_CURVE('',#232,#232,#113,.T.);
#247=EDGE_CURVE('',#233,#233,#114,.T.);
#248=EDGE_CURVE('',#234,#234,#115,.T.);
#249=EDGE_CURVE('',#235,#235,#116,.T.);
#250=EDGE_CURVE('',#236,#236,#117,.T.);
#251=EDGE_CURVE('',#237,#237,#118,.T.);
#252=B_SPLINE_CURVE_WITH_KNOTS('',3,(#333,#334,#335,#336,#337,#338,#339,
#340,#341,#342,#343,#344,#345,#346,#347,#348,#349,#350,#351,#352,#353,#354,
#355,#356,#357,#358,#359,#360,#361,#362,#363,#364,#365,#366,#367,#368,#369,
#370,#371,#372,#373,#374,#375,#376,#377,#378,#379,#380,#381,#382,#383,#384,
#385,#386,#387,#388,#389,#390,#391,#392,#393),.UNSPECIFIED.,.T.,.F.,(1,3,
3,3,3,3,3,3,3,3,3,3,3,3,3,3,3,3,3,3,3,3,1),(-0.0223672778650827,0.,0.0523544830879756,
0.10463083267089,0.158086076179376,0.212570567260259,0.265725712162046,0.317238522230693,
0.369365414372642,0.423360517088059,0.477644368504571,0.500012790778519,
0.552364595316625,0.604638270347122,0.658090778988849,0.712572482544808,
0.765724907933423,0.817235082513711,0.869359307749756,0.92335164797824,0.977632722134917,
1.,1.05235448308798),.UNSPECIFIED.);
#253=B_SPLINE_CURVE_WITH_KNOTS('',3,(#395,#396,#397,#398,#399,#400,#401,
#402,#403,#404,#405,#406,#407,#408,#409,#410,#411,#412,#413,#414,#415,#416,
#417,#418,#419,#420,#421,#422,#423,#424,#425,#426,#427,#428,#429,#430,#431,
#432,#433,#434,#435,#436,#437,#438,#439,#440,#441,#442,#443,#444,#445,#446,
#447,#448,#449,#450,#451,#452,#453,#454,#455),.UNSPECIFIED.,.T.,.F.,(1,3,
3,3,3,3,3,3,3,3,3,3,3,3,3,3,3,3,3,3,3,3,1),(-0.020155644931133,0.,0.052869913612891,
0.105689791837253,0.159263492606714,0.213437473997626,0.266774425602664,
0.319134994295335,0.371903819294909,0.425813999321152,0.479847453202111,
0.500003369820476,0.552872570789908,0.605691737045246,0.659264715684772,
0.713437966854433,0.766774199520681,0.819134062435425,0.871902176154136,
0.925811629514974,0.979844355068867,1.,1.05286991361289),.UNSPECIFIED.);
#254=AXIS2_PLACEMENT_3D('',#332,#280,#281);
#255=AXIS2_PLACEMENT_3D('',#457,#282,#283);
#256=AXIS2_PLACEMENT_3D('',#458,#284,#285);
#257=AXIS2_PLACEMENT_3D('',#460,#286,#287);
#258=AXIS2_PLACEMENT_3D('',#462,#288,#289);
#259=AXIS2_PLACEMENT_3D('',#463,#290,#291);
#260=AXIS2_PLACEMENT_3D('',#465,#292,#293);
#261=AXIS2_PLACEMENT_3D('',#466,#294,#295);
#262=AXIS2_PLACEMENT_3D('',#468,#296,#297);
#263=AXIS2_PLACEMENT_3D('',#470,#298,#299);
#264=AXIS2_PLACEMENT_3D('',#472,#300,#301);
#265=AXIS2_PLACEMENT_3D('',#473,#302,#303);
#266=AXIS2_PLACEMENT_3D('',#475,#304,#305);
#267=AXIS2_PLACEMENT_3D('',#476,#306,#307);
#268=AXIS2_PLACEMENT_3D('',#478,#308,#309);
#269=AXIS2_PLACEMENT_3D('',#479,#310,#311);
#270=AXIS2_PLACEMENT_3D('',#481,#312,#313);
#271=AXIS2_PLACEMENT_3D('',#511,#314,#315);
#272=AXIS2_PLACEMENT_3D('',#513,#316,#317);
#273=AXIS2_PLACEMENT_3D('',#515,#318,#319);
#274=AXIS2_PLACEMENT_3D('',#516,#320,#321);
#275=AXIS2_PLACEMENT_3D('',#518,#322,#323);
#276=AXIS2_PLACEMENT_3D('',#519,#324,#325);
#277=AXIS2_PLACEMENT_3D('',#520,#326,#327);
#278=AXIS2_PLACEMENT_3D('',#521,#328,#329);
#279=AXIS2_PLACEMENT_3D('',#522,#330,#331);
#280=DIRECTION('',(0.,0.,1.));
#281=DIRECTION('',(1.,0.,0.));
#282=DIRECTION('',(1.,0.,0.));
#283=DIRECTION('',(0.,0.,1.));
#284=DIRECTION('',(0.,0.,1.));
#285=DIRECTION('',(1.,0.,0.));
#286=DIRECTION('',(0.,0.,-1.));
#287=DIRECTION('',(1.,0.,0.));
#288=DIRECTION('',(0.,0.,1.));
#289=DIRECTION('',(-1.,0.,0.));
#290=DIRECTION('',(0.,0.,1.));
#291=DIRECTION('',(1.,0.,0.));
#292=DIRECTION('',(0.,0.,-1.));
#293=DIRECTION('',(1.,0.,-5.74887647382545E-017));
#294=DIRECTION('',(0.,0.,1.));
#295=DIRECTION('',(1.,0.,0.));
#296=DIRECTION('',(0.,0.,1.));
#297=DIRECTION('',(1.,0.,0.));
#298=DIRECTION('',(0.,0.,1.));
#299=DIRECTION('',(-1.,0.,0.));
#300=DIRECTION('',(0.,0.,-1.));
#301=DIRECTION('',(1.,0.,0.));
#302=DIRECTION('',(0.,0.,1.));
#303=DIRECTION('',(1.,0.,0.));
#304=DIRECTION('',(0.,0.,-1.));
#305=DIRECTION('',(1.,0.,1.83903101644054E-016));
#306=DIRECTION('',(0.,0.,1.));
#307=DIRECTION('',(1.,0.,0.));
#308=DIRECTION('',(0.,0.,1.));
#309=DIRECTION('',(-1.,0.,0.));
#310=DIRECTION('',(0.,0.,-1.));
#311=DIRECTION('',(-1.,0.,0.));
#312=DIRECTION('',(0.,0.,1.));
#313=DIRECTION('',(-1.,0.,0.));
#314=DIRECTION('',(0.,0.,1.));
#315=DIRECTION('',(1.,0.,0.));
#316=DIRECTION('',(0.,0.,1.));
#317=DIRECTION('',(1.,0.,0.));
#318=DIRECTION('',(0.,0.,1.));
#319=DIRECTION('',(-1.,0.,0.));
#320=DIRECTION('',(0.,0.,1.));
#321=DIRECTION('',(1.,0.,0.));
#322=DIRECTION('',(0.,0.,1.));
#323=DIRECTION('',(-1.,0.,0.));
#324=DIRECTION('',(0.,0.,-1.));
#325=DIRECTION('',(1.,0.,0.));
#326=DIRECTION('',(0.,0.,-1.));
#327=DIRECTION('',(1.,0.,0.));
#328=DIRECTION('',(0.,0.,1.));
#329=DIRECTION('',(-1.,0.,0.));
#330=DIRECTION('',(0.,0.,1.));
#331=DIRECTION('',(-1.,0.,0.));
#332=CARTESIAN_POINT('',(0.,0.,0.));
#333=CARTESIAN_POINT('',(-1.45,1.27610249596281E-016,-14.5));
#334=CARTESIAN_POINT('',(-1.45,-0.0438472306674401,-14.5));
#335=CARTESIAN_POINT('',(-1.44790396568858,-0.0882961955573311,-14.4925717744495));
#336=CARTESIAN_POINT('',(-1.44419406098578,-0.129628369631841,-14.4784131152413));
#337=CARTESIAN_POINT('',(-1.44048730326093,-0.170925483118211,-14.4642664663115));
#338=CARTESIAN_POINT('',(-1.43510038652059,-0.210241452429185,-14.4430499824021));
#339=CARTESIAN_POINT('',(-1.42922156304635,-0.24459297562143,-14.4165032010528));
#340=CARTESIAN_POINT('',(-1.42321182202799,-0.279709484711449,-14.389365240289));
#341=CARTESIAN_POINT('',(-1.41656153376823,-0.310606693550542,-14.3559218613713));
#342=CARTESIAN_POINT('',(-1.41079630124525,-0.334893709096944,-14.3187377507594));
#343=CARTESIAN_POINT('',(-1.40492617958447,-0.359622587848421,-14.2808771350306));
#344=CARTESIAN_POINT('',(-1.39985887574809,-0.378176948647195,-14.2380317904602));
#345=CARTESIAN_POINT('',(-1.39688863497693,-0.388847195530938,-14.1937969004164));
#346=CARTESIAN_POINT('',(-1.39399052105182,-0.399258335051526,-14.1506361734959));
#347=CARTESIAN_POINT('',(-1.39304229298777,-0.402434915975569,-14.1049212031567));
#348=CARTESIAN_POINT('',(-1.39429105316217,-0.398060873575807,-14.0606612032713));
#349=CARTESIAN_POINT('',(-1.39550265574857,-0.393816983361128,-14.0177181855205));
#350=CARTESIAN_POINT('',(-1.39879172361053,-0.3823781347758,-13.9749816953026));
#351=CARTESIAN_POINT('',(-1.40337068577286,-0.364761179833335,-13.9358376362055));
#352=CARTESIAN_POINT('',(-1.40800573506507,-0.34692843703221,-13.8962141064667));
#353=CARTESIAN_POINT('',(-1.41404283996985,-0.32231773098425,-13.8592016473258));
#354=CARTESIAN_POINT('',(-1.42012133890402,-0.292840200091202,-13.8275213454038));
#355=CARTESIAN_POINT('',(-1.42641212427269,-0.26233319136175,-13.7947346357302));
#356=CARTESIAN_POINT('',(-1.43287869969011,-0.225759685907311,-13.7667563697286));
#357=CARTESIAN_POINT('',(-1.43802330812662,-0.18598108851327,-13.745865795615));
#358=CARTESIAN_POINT('',(-1.44319130718916,-0.146021632593701,-13.7248802398107));
#359=CARTESIAN_POINT('',(-1.44713079315909,-0.101660639318209,-13.7104799372731));
#360=CARTESIAN_POINT('',(-1.44889006310987,-0.0567237606429872,-13.7040424076009));
#361=CARTESIAN_POINT('',(-1.44962427071017,-0.037969960043829,-13.7013557913653));
#362=CARTESIAN_POINT('',(-1.45,-0.018959483234269,-13.7));
#363=CARTESIAN_POINT('',(-1.45,-7.39048266447653E-016,-13.7));
#364=CARTESIAN_POINT('',(-1.45,0.0438472306674402,-13.7));
#365=CARTESIAN_POINT('',(-1.44790396568858,0.0882961955573308,-13.7074282255505));
#366=CARTESIAN_POINT('',(-1.44419406098578,0.129628369631841,-13.7215868847587));
#367=CARTESIAN_POINT('',(-1.44048730326093,0.170925483118212,-13.7357335336885));
#368=CARTESIAN_POINT('',(-1.43510038652059,0.210241452429185,-13.7569500175979));
#369=CARTESIAN_POINT('',(-1.42922156304635,0.24459297562143,-13.7834967989472));
#370=CARTESIAN_POINT('',(-1.42321182202799,0.279709484711449,-13.810634759711));
#371=CARTESIAN_POINT('',(-1.41656153376823,0.310606693550542,-13.8440781386287));
#372=CARTESIAN_POINT('',(-1.41079630124525,0.334893709096944,-13.8812622492406));
#373=CARTESIAN_POINT('',(-1.40492617958447,0.359622587848421,-13.9191228649694));
#374=CARTESIAN_POINT('',(-1.39985887574809,0.378176948647195,-13.9619682095398));
#375=CARTESIAN_POINT('',(-1.39688863497693,0.388847195530938,-14.0062030995836));
#376=CARTESIAN_POINT('',(-1.39399052105182,0.399258335051526,-14.0493638265041));
#377=CARTESIAN_POINT('',(-1.39304229298777,0.402434915975569,-14.0950787968433));
#378=CARTESIAN_POINT('',(-1.39429105316217,0.398060873575807,-14.1393387967287));
#379=CARTESIAN_POINT('',(-1.39550265574857,0.393816983361128,-14.1822818144795));
#380=CARTESIAN_POINT('',(-1.39879172361053,0.382378134775799,-14.2250183046974));
#381=CARTESIAN_POINT('',(-1.40337068577286,0.364761179833335,-14.2641623637945));
#382=CARTESIAN_POINT('',(-1.40800573506507,0.34692843703221,-14.3037858935333));
#383=CARTESIAN_POINT('',(-1.41404283996985,0.322317730984249,-14.3407983526742));
#384=CARTESIAN_POINT('',(-1.42012133890402,0.2928402000912,-14.3724786545962));
#385=CARTESIAN_POINT('',(-1.42641212427269,0.262333191361748,-14.4052653642699));
#386=CARTESIAN_POINT('',(-1.43287869969011,0.22575968590731,-14.4332436302714));
#387=CARTESIAN_POINT('',(-1.43802330812662,0.185981088513269,-14.454134204385));
#388=CARTESIAN_POINT('',(-1.44319130718916,0.1460216325937,-14.4751197601893));
#389=CARTESIAN_POINT('',(-1.44713079315909,0.101660639318208,-14.4895200627269));
#390=CARTESIAN_POINT('',(-1.44889006310987,0.0567237606429868,-14.4959575923991));
#391=CARTESIAN_POINT('',(-1.44962427071017,0.0379699600438287,-14.4986442086347));
#392=CARTESIAN_POINT('',(-1.45,0.0189594832342683,-14.5));
#393=CARTESIAN_POINT('',(-1.45,1.27610249596281E-016,-14.5));
#394=CARTESIAN_POINT('',(-1.45,1.27610249596281E-016,-14.5));
#395=CARTESIAN_POINT('',(-1.85,2.29994955833034E-012,-13.7));
#396=CARTESIAN_POINT('',(-1.85000000000005,-0.0441969103234311,-13.6999999999997));
#397=CARTESIAN_POINT('',(-1.84833021519451,-0.0890012611340843,-13.7075418094113));
#398=CARTESIAN_POINT('',(-1.84537876830586,-0.130679766934035,-13.7219486826976));
#399=CARTESIAN_POINT('',(-1.84242890903055,-0.172335853441242,-13.7363478063801));
#400=CARTESIAN_POINT('',(-1.83814266943008,-0.21201273350919,-13.7579762763202));
#401=CARTESIAN_POINT('',(-1.83349086915018,-0.246599336460786,-13.7850575175415));
#402=CARTESIAN_POINT('',(-1.82877360949605,-0.28167263644366,-13.8125198415689));
#403=CARTESIAN_POINT('',(-1.82358345451786,-0.312479446087249,-13.8463401792003));
#404=CARTESIAN_POINT('',(-1.81912708422627,-0.336565968919081,-13.8838441567629));
#405=CARTESIAN_POINT('',(-1.81462362333916,-0.360907014743771,-13.9217444399558));
#406=CARTESIAN_POINT('',(-1.81078180663867,-0.379052985009894,-13.9644895745755));
#407=CARTESIAN_POINT('',(-1.80855508387785,-0.38939505464194,-14.0085041453376));
#408=CARTESIAN_POINT('',(-1.80636254829169,-0.399578341084973,-14.0518429544624));
#409=CARTESIAN_POINT('',(-1.80569731849151,-0.402467501127751,-14.0976312730444));
#410=CARTESIAN_POINT('',(-1.80672619167209,-0.397794505148163,-14.1419467719131));
#411=CARTESIAN_POINT('',(-1.80773693867513,-0.393203835694671,-14.1854815422962));
#412=CARTESIAN_POINT('',(-1.81039543325433,-0.381207504131298,-14.22878166444));
#413=CARTESIAN_POINT('',(-1.81406882213914,-0.362841988395395,-14.2683617874022));
#414=CARTESIAN_POINT('',(-1.81777153514751,-0.344329863446656,-14.3082578726688));
#415=CARTESIAN_POINT('',(-1.8225731247814,-0.318863761196829,-14.3454607619626));
#416=CARTESIAN_POINT('',(-1.82737131251308,-0.288468518566968,-14.3771027134399));
#417=CARTESIAN_POINT('',(-1.83227050934104,-0.257433410187594,-14.4094107757704));
#418=CARTESIAN_POINT('',(-1.83726643258134,-0.220393833251262,-14.4368117359667));
#419=CARTESIAN_POINT('',(-1.84119119411806,-0.180319124615496,-14.45705043523));
#420=CARTESIAN_POINT('',(-1.8451231019565,-0.140171446970952,-14.4773259856114));
#421=CARTESIAN_POINT('',(-1.84805887675732,-0.095831001510202,-14.4909645572387));
#422=CARTESIAN_POINT('',(-1.84929499789152,-0.0510686868188937,-14.4967265925377));
#423=CARTESIAN_POINT('',(-1.84976206788051,-0.0341551876061529,-14.4989037851196));
#424=CARTESIAN_POINT('',(-1.85,-0.0170594483361154,-14.5));
#425=CARTESIAN_POINT('',(-1.85,-1.21495448266479E-016,-14.5));
#426=CARTESIAN_POINT('',(-1.85,0.0441969103257437,-14.5));
#427=CARTESIAN_POINT('',(-1.8483302151944,0.0890012611363639,-14.4924581905882));
#428=CARTESIAN_POINT('',(-1.84537876830571,0.13067976693624,-14.4780513173016));
#429=CARTESIAN_POINT('',(-1.84242890903035,0.172335853443372,-14.4636521936189));
#430=CARTESIAN_POINT('',(-1.83814266942984,0.212012733511201,-14.4420237236785));
#431=CARTESIAN_POINT('',(-1.83349086914993,0.246599336462645,-14.414942482457));
#432=CARTESIAN_POINT('',(-1.82877360949578,0.281672636445369,-14.3874801584294));
#433=CARTESIAN_POINT('',(-1.8235834545176,0.312479446088769,-14.3536598207979));
#434=CARTESIAN_POINT('',(-1.81912708422603,0.336565968920385,-14.3161558432351));
#435=CARTESIAN_POINT('',(-1.81462362333894,0.360907014744846,-14.2782555600421));
#436=CARTESIAN_POINT('',(-1.8107818066385,0.379052985010712,-14.2355104254223));
#437=CARTESIAN_POINT('',(-1.80855508387773,0.389395054642492,-14.19149585466));
#438=CARTESIAN_POINT('',(-1.80636254829163,0.39957834108526,-14.1481570455352));
#439=CARTESIAN_POINT('',(-1.80569731849151,0.402467501127763,-14.1023687269532));
#440=CARTESIAN_POINT('',(-1.80672619167214,0.397794505147916,-14.0580532280846));
#441=CARTESIAN_POINT('',(-1.80773693867524,0.393203835694167,-14.0145184577014));
#442=CARTESIAN_POINT('',(-1.81039543325449,0.381207504130542,-13.9712183355578));
#443=CARTESIAN_POINT('',(-1.81406882213933,0.362841988394411,-13.9316382125956));
#444=CARTESIAN_POINT('',(-1.81777153514775,0.344329863445434,-13.8917421273292));
#445=CARTESIAN_POINT('',(-1.82257312478166,0.318863761195381,-13.8545392380356));
#446=CARTESIAN_POINT('',(-1.82737131251334,0.28846851856532,-13.8228972865583));
#447=CARTESIAN_POINT('',(-1.8322705093413,0.257433410185745,-13.790589224228));
#448=CARTESIAN_POINT('',(-1.83726643258159,0.220393833249236,-13.7631882640319));
#449=CARTESIAN_POINT('',(-1.84119119411828,0.180319124613333,-13.742949564769));
#450=CARTESIAN_POINT('',(-1.84512310195667,0.140171446968674,-13.7226740143878));
#451=CARTESIAN_POINT('',(-1.84805887675744,0.0958310015078487,-13.7090354427607));
#452=CARTESIAN_POINT('',(-1.84929499789158,0.0510686868165153,-13.703273407462));
#453=CARTESIAN_POINT('',(-1.84976206788051,0.0341551876053104,-13.7010962148804));
#454=CARTESIAN_POINT('',(-1.84999999999998,0.0170594483368523,-13.7000000000001));
#455=CARTESIAN_POINT('',(-1.85,2.29994955833034E-012,-13.7));
#456=CARTESIAN_POINT('',(-1.85,2.29994955833034E-012,-13.7));
#457=CARTESIAN_POINT('',(-10.,0.,-14.1));
#458=CARTESIAN_POINT('',(0.,0.,-13.5));
#459=CARTESIAN_POINT('',(1.45,0.,-13.5));
#460=CARTESIAN_POINT('',(0.,0.,-19.));
#461=CARTESIAN_POINT('',(1.45,0.,-19.));
#462=CARTESIAN_POINT('',(0.,0.,0.));
#463=CARTESIAN_POINT('',(0.,0.,-20.));
#464=CARTESIAN_POINT('',(1.75,0.,-20.));
#465=CARTESIAN_POINT('',(0.,0.,-20.));
#466=CARTESIAN_POINT('',(0.,0.,-15.1));
#467=CARTESIAN_POINT('',(2.,0.,-15.1));
#468=CARTESIAN_POINT('',(0.,0.,-20.));
#469=CARTESIAN_POINT('',(2.,0.,-20.));
#470=CARTESIAN_POINT('',(0.,0.,0.));
#471=CARTESIAN_POINT('',(0.,0.,-12.62875210241));
#472=CARTESIAN_POINT('',(0.,0.,-1012.62875210241));
#473=CARTESIAN_POINT('',(0.,0.,-14.6));
#474=CARTESIAN_POINT('',(1.85,0.,-14.6));
#475=CARTESIAN_POINT('',(0.,0.,-14.6));
#476=CARTESIAN_POINT('',(0.,0.,-13.6));
#477=CARTESIAN_POINT('',(1.85,0.,-13.6));
#478=CARTESIAN_POINT('',(0.,0.,0.));
#479=CARTESIAN_POINT('',(0.,0.,-1.));
#480=CARTESIAN_POINT('',(-1.5,0.,-1.));
#481=CARTESIAN_POINT('',(0.,0.,0.));
#482=CARTESIAN_POINT('',(-0.5,0.,0.));
#483=CARTESIAN_POINT('',(1.5,0.,-1.));
#484=CARTESIAN_POINT('',(1.5,-3.,-1.));
#485=CARTESIAN_POINT('',(-1.5,-3.,-1.));
#486=CARTESIAN_POINT('',(-1.5,0.,-1.));
#487=CARTESIAN_POINT('',(-1.5,3.,-1.));
#488=CARTESIAN_POINT('',(1.5,3.,-1.));
#489=CARTESIAN_POINT('',(1.5,0.,-1.));
#490=CARTESIAN_POINT('',(1.5,0.,-0.414213562373095));
#491=CARTESIAN_POINT('',(1.5,-3.,-0.414213562373095));
#492=CARTESIAN_POINT('',(-1.5,-3.,-0.414213562373095));
#493=CARTESIAN_POINT('',(-1.5,0.,-0.414213562373095));
#494=CARTESIAN_POINT('',(-1.5,3.,-0.414213562373095));
#495=CARTESIAN_POINT('',(1.5,3.,-0.414213562373095));
#496=CARTESIAN_POINT('',(1.5,0.,-0.414213562373095));
#497=CARTESIAN_POINT('',(1.08578643762691,0.,-6.35110928287635E-017));
#498=CARTESIAN_POINT('',(1.08578643762691,-2.17157287525381,-6.35110928287635E-017));
#499=CARTESIAN_POINT('',(-1.08578643762691,-2.17157287525381,-6.35110928287635E-017));
#500=CARTESIAN_POINT('',(-1.08578643762691,0.,-6.35110928287635E-017));
#501=CARTESIAN_POINT('',(-1.08578643762691,2.17157287525381,-6.35110928287635E-017));
#502=CARTESIAN_POINT('',(1.08578643762691,2.17157287525381,-6.35110928287635E-017));
#503=CARTESIAN_POINT('',(1.08578643762691,0.,-6.35110928287635E-017));
#504=CARTESIAN_POINT('',(0.5,0.,0.));
#505=CARTESIAN_POINT('',(0.5,-1.,0.));
#506=CARTESIAN_POINT('',(-0.5,-1.,0.));
#507=CARTESIAN_POINT('',(-0.5,0.,0.));
#508=CARTESIAN_POINT('',(-0.5,1.,0.));
#509=CARTESIAN_POINT('',(0.5,1.,0.));
#510=CARTESIAN_POINT('',(0.5,0.,0.));
#511=CARTESIAN_POINT('',(0.,0.,-12.));
#512=CARTESIAN_POINT('',(2.8,0.,-12.));
#513=CARTESIAN_POINT('',(0.,0.,-13.6));
#514=CARTESIAN_POINT('',(2.8,0.,-13.6));
#515=CARTESIAN_POINT('',(0.,0.,0.));
#516=CARTESIAN_POINT('',(0.,0.,-12.));
#517=CARTESIAN_POINT('',(1.5,0.,-12.));
#518=CARTESIAN_POINT('',(0.,0.,0.));
#519=CARTESIAN_POINT('',(0.,0.,0.));
#520=CARTESIAN_POINT('',(0.,1.5,-12.));
#521=CARTESIAN_POINT('',(0.,2.8,-13.6));
#522=CARTESIAN_POINT('',(0.,2.,-20.));
#523=(
GEOMETRIC_REPRESENTATION_CONTEXT(3)
GLOBAL_UNCERTAINTY_ASSIGNED_CONTEXT((#524))
GLOBAL_UNIT_ASSIGNED_CONTEXT((#530,#526,#525))
REPRESENTATION_CONTEXT('FM10S-020-4-01_1010090000007',
'TOP_LEVEL_ASSEMBLY_PART')
);
#524=UNCERTAINTY_MEASURE_WITH_UNIT(LENGTH_MEASURE(0.0508),#530,
'DISTANCE_ACCURACY_VALUE','Maximum Tolerance applied to model');
#525=(
NAMED_UNIT(*)
SI_UNIT($,.STERADIAN.)
SOLID_ANGLE_UNIT()
);
#526=(
CONVERSION_BASED_UNIT('DEGREE',#528)
NAMED_UNIT(#527)
PLANE_ANGLE_UNIT()
);
#527=DIMENSIONAL_EXPONENTS(0.,0.,0.,0.,0.,0.,0.);
#528=PLANE_ANGLE_MEASURE_WITH_UNIT(PLANE_ANGLE_MEASURE(0.0174532925),#529);
#529=(
NAMED_UNIT(*)
PLANE_ANGLE_UNIT()
SI_UNIT($,.RADIAN.)
);
#530=(
LENGTH_UNIT()
NAMED_UNIT(*)
SI_UNIT(.MILLI.,.METRE.)
);
ENDSEC;
END-ISO-10303-21;
