ISO-10303-21;
HEADER;
/* Generated by software containing ST-Developer
 * from STEP Tools, Inc. (www.steptools.com) 
 */
/* OPTION: using custom schema-name function */

FILE_DESCRIPTION(
/* description */ (''),
/* implementation_level */ '2;1');

FILE_NAME(
/* name */ 'SGM-0.82.stp',
/* time_stamp */ '2023-07-31T14:09:47+08:00',
/* author */ (''),
/* organization */ (''),
/* preprocessor_version */ 'ST-DEVELOPER v11',
/* originating_system */ 'SIEMENS PLM Software NX 7.5',
/* authorisation */ '');

FILE_SCHEMA (('CONFIG_CONTROL_DESIGN'));
ENDSEC;

DATA;
#10=SHAPE_REPRESENTATION_RELATIONSHIP('None',
'relationship between fang57B4my3n-None and fang57B4my3n-None',#94,#11);
#11=ADVANCED_BREP_SHAPE_REPRESENTATION('fang57B4my3n-None',(#95),#499);
#12=CC_DESIGN_APPROVAL(#24,(#82));
#13=CC_DESIGN_APPROVAL(#25,(#84));
#14=CC_DESIGN_APPROVAL(#26,(#31));
#15=APPROVAL_PERSON_ORGANIZATION(#69,#24,#18);
#16=APPROVAL_PERSON_ORGANIZATION(#70,#25,#19);
#17=APPROVAL_PERSON_ORGANIZATION(#71,#26,#20);
#18=APPROVAL_ROLE('approver');
#19=APPROVAL_ROLE('approver');
#20=APPROVAL_ROLE('approver');
#21=APPROVAL_DATE_TIME(#39,#24);
#22=APPROVAL_DATE_TIME(#40,#25);
#23=APPROVAL_DATE_TIME(#41,#26);
#24=APPROVAL(#27,' ');
#25=APPROVAL(#28,' ');
#26=APPROVAL(#29,' ');
#27=APPROVAL_STATUS('not_yet_approved');
#28=APPROVAL_STATUS('not_yet_approved');
#29=APPROVAL_STATUS('not_yet_approved');
#30=CC_DESIGN_SECURITY_CLASSIFICATION(#31,(#84));
#31=SECURITY_CLASSIFICATION(' ',' ',#32);
#32=SECURITY_CLASSIFICATION_LEVEL('confidential');
#33=CC_DESIGN_DATE_AND_TIME_ASSIGNMENT(#37,#35,(#82));
#34=CC_DESIGN_DATE_AND_TIME_ASSIGNMENT(#38,#36,(#31));
#35=DATE_TIME_ROLE('creation_date');
#36=DATE_TIME_ROLE('classification_date');
#37=DATE_AND_TIME(#52,#42);
#38=DATE_AND_TIME(#53,#43);
#39=DATE_AND_TIME(#54,#44);
#40=DATE_AND_TIME(#55,#45);
#41=DATE_AND_TIME(#56,#46);
#42=LOCAL_TIME(0,0,0.,#47);
#43=LOCAL_TIME(0,0,0.,#48);
#44=LOCAL_TIME(0,0,0.,#49);
#45=LOCAL_TIME(0,0,0.,#50);
#46=LOCAL_TIME(0,0,0.,#51);
#47=COORDINATED_UNIVERSAL_TIME_OFFSET(0,0,.BEHIND.);
#48=COORDINATED_UNIVERSAL_TIME_OFFSET(0,0,.BEHIND.);
#49=COORDINATED_UNIVERSAL_TIME_OFFSET(0,0,.BEHIND.);
#50=COORDINATED_UNIVERSAL_TIME_OFFSET(0,0,.BEHIND.);
#51=COORDINATED_UNIVERSAL_TIME_OFFSET(0,0,.BEHIND.);
#52=CALENDAR_DATE(0,1,1);
#53=CALENDAR_DATE(0,1,1);
#54=CALENDAR_DATE(0,1,1);
#55=CALENDAR_DATE(0,1,1);
#56=CALENDAR_DATE(0,1,1);
#57=CC_DESIGN_PERSON_AND_ORGANIZATION_ASSIGNMENT(#65,#61,(#82,#84));
#58=CC_DESIGN_PERSON_AND_ORGANIZATION_ASSIGNMENT(#66,#62,(#86));
#59=CC_DESIGN_PERSON_AND_ORGANIZATION_ASSIGNMENT(#67,#63,(#84));
#60=CC_DESIGN_PERSON_AND_ORGANIZATION_ASSIGNMENT(#68,#64,(#31));
#61=PERSON_AND_ORGANIZATION_ROLE('creator');
#62=PERSON_AND_ORGANIZATION_ROLE('design_owner');
#63=PERSON_AND_ORGANIZATION_ROLE('design_supplier');
#64=PERSON_AND_ORGANIZATION_ROLE('classification_officer');
#65=PERSON_AND_ORGANIZATION(#79,#72);
#66=PERSON_AND_ORGANIZATION(#79,#73);
#67=PERSON_AND_ORGANIZATION(#79,#74);
#68=PERSON_AND_ORGANIZATION(#79,#75);
#69=PERSON_AND_ORGANIZATION(#79,#76);
#70=PERSON_AND_ORGANIZATION(#79,#77);
#71=PERSON_AND_ORGANIZATION(#79,#78);
#72=ORGANIZATION(' ',' ',' ');
#73=ORGANIZATION(' ',' ',' ');
#74=ORGANIZATION(' ',' ',' ');
#75=ORGANIZATION(' ',' ',' ');
#76=ORGANIZATION(' ',' ',' ');
#77=ORGANIZATION(' ',' ',' ');
#78=ORGANIZATION(' ',' ',' ');
#79=PERSON(' ',' ',' ',(' '),$,$);
#80=SHAPE_DEFINITION_REPRESENTATION(#81,#94);
#81=PRODUCT_DEFINITION_SHAPE('','',#82);
#82=PRODUCT_DEFINITION(' ','',#84,#83);
#83=DESIGN_CONTEXT('',#93,'design');
#84=PRODUCT_DEFINITION_FORMATION_WITH_SPECIFIED_SOURCE(' ',' ',#86,.NOT_KNOWN.);
#85=PRODUCT_RELATED_PRODUCT_CATEGORY('detail','',(#86));
#86=PRODUCT('fang57B4my3n','fang57B4my3n',' ',(#91));
#87=PRODUCT_CATEGORY_RELATIONSHIP(' ',' ',#89,#90);
#88=PRODUCT_CATEGORY_RELATIONSHIP('','',#90,#85);
#89=PRODUCT_CATEGORY('part',' ');
#90=PRODUCT_CATEGORY(' ','');
#91=MECHANICAL_CONTEXT(' ',#93,'mechanical');
#92=APPLICATION_PROTOCOL_DEFINITION('international standard',
'config_control_design',1994,#93);
#93=APPLICATION_CONTEXT(
'configuration controlled 3D designs of mechanical parts and assemblies');
#94=SHAPE_REPRESENTATION('fang57B4my3n-None',(#254),#499);
#95=MANIFOLD_SOLID_BREP('5',#96);
#96=CLOSED_SHELL('',(#111,#112,#113,#114,#115,#116,#117,#118,#119,#120,#121,
#122,#123,#124));
#97=PLANE('',#278);
#98=PLANE('',#279);
#99=PLANE('',#280);
#100=SPHERICAL_SURFACE('',#273,0.5);
#101=FACE_OUTER_BOUND('',#174,.T.);
#102=CYLINDRICAL_SURFACE('',#260,0.675);
#103=CYLINDRICAL_SURFACE('',#261,0.3);
#104=CYLINDRICAL_SURFACE('',#264,0.875);
#105=CYLINDRICAL_SURFACE('',#268,0.775);
#106=CYLINDRICAL_SURFACE('',#275,0.5);
#107=CYLINDRICAL_SURFACE('',#277,1.05);
#108=B_SPLINE_CURVE_WITH_KNOTS('',3,(#345,#346,#347,#348,#349,#350,#351,
#352,#353,#354,#355,#356,#357,#358,#359,#360,#361,#362,#363,#364,#365,#366,
#367,#368,#369,#370,#371,#372,#373,#374,#375,#376,#377,#378,#379,#380,#381,
#382,#383,#384,#385,#386,#387,#388,#389,#390,#391,#392,#393,#394,#395,#396,
#397,#398,#399,#400,#401,#402,#403,#404,#405),.UNSPECIFIED.,.T.,.F.,(1,3,
3,3,3,3,3,3,3,3,3,3,3,3,3,3,3,3,3,3,3,3,1),(-0.0311032219029859,0.,0.0500316029321095,
0.0998404628239729,0.152903827674282,0.208751854999887,0.261295295088312,
0.310105734584525,0.359642677229667,0.413149591242739,0.468981649563143,
0.500096933592757,0.550109141312866,0.599898692341122,0.652941486688981,
0.708767864012063,0.761290935151665,0.810082452831139,0.859600192023901,
0.913086363588601,0.968896778097014,1.,1.05003160293211),.UNSPECIFIED.);
#109=B_SPLINE_CURVE_WITH_KNOTS('',3,(#408,#409,#410,#411,#412,#413,#414,
#415,#416,#417,#418,#419,#420,#421,#422,#423,#424,#425,#426,#427,#428,#429,
#430,#431,#432,#433,#434,#435,#436,#437,#438,#439,#440,#441,#442,#443,#444,
#445,#446,#447,#448,#449,#450,#451,#452,#453,#454,#455,#456,#457,#458,#459,
#460,#461,#462,#463,#464,#465,#466,#467,#468),.UNSPECIFIED.,.T.,.F.,(1,3,
3,3,3,3,3,3,3,3,3,3,3,3,3,3,3,3,3,3,3,3,1),(-0.0387164141892211,0.,0.0516486085268327,
0.103183316432349,0.156437089422883,0.211387425888938,0.249994272243978,
0.301545361751907,0.352963622571594,0.406350931081318,0.461278603553455,
0.499994104787453,0.551643931246738,0.603179854398803,0.656434883173378,
0.711386515430356,0.749994272178419,0.801546577319194,0.852966050639476,
0.906354618082161,0.961283585810779,1.,1.05164860852683),.UNSPECIFIED.);
#110=VERTEX_LOOP('',#216);
#111=ADVANCED_FACE('',(#129,#130),#125,.F.);
#112=ADVANCED_FACE('',(#131,#132),#126,.F.);
#113=ADVANCED_FACE('',(#133,#134,#135),#102,.F.);
#114=ADVANCED_FACE('',(#136,#137),#103,.F.);
#115=ADVANCED_FACE('',(#138,#139,#140),#104,.T.);
#116=ADVANCED_FACE('',(#141,#142),#127,.T.);
#117=ADVANCED_FACE('',(#143,#144),#105,.T.);
#118=ADVANCED_FACE('',(#145,#146),#128,.T.);
#119=ADVANCED_FACE('',(#101),#100,.T.);
#120=ADVANCED_FACE('',(#147,#148),#106,.T.);
#121=ADVANCED_FACE('',(#149,#150),#107,.T.);
#122=ADVANCED_FACE('',(#151,#152),#97,.T.);
#123=ADVANCED_FACE('',(#153,#154),#98,.F.);
#124=ADVANCED_FACE('',(#155,#156),#99,.T.);
#125=CONICAL_SURFACE('',#257,0.675,44.9999999999995);
#126=CONICAL_SURFACE('',#259,0.675000000000001,59.9999999999998);
#127=CONICAL_SURFACE('',#266,0.875,10.304846468766);
#128=CONICAL_SURFACE('',#271,0.950000000000004,33.6900675259797);
#129=FACE_BOUND('',#157,.T.);
#130=FACE_BOUND('',#158,.T.);
#131=FACE_BOUND('',#159,.T.);
#132=FACE_BOUND('',#110,.T.);
#133=FACE_BOUND('',#160,.T.);
#134=FACE_BOUND('',#161,.T.);
#135=FACE_BOUND('',#162,.T.);
#136=FACE_BOUND('',#163,.T.);
#137=FACE_BOUND('',#164,.T.);
#138=FACE_BOUND('',#165,.T.);
#139=FACE_BOUND('',#166,.T.);
#140=FACE_BOUND('',#167,.T.);
#141=FACE_BOUND('',#168,.T.);
#142=FACE_BOUND('',#169,.T.);
#143=FACE_BOUND('',#170,.T.);
#144=FACE_BOUND('',#171,.T.);
#145=FACE_BOUND('',#172,.T.);
#146=FACE_BOUND('',#173,.T.);
#147=FACE_BOUND('',#175,.T.);
#148=FACE_BOUND('',#176,.T.);
#149=FACE_BOUND('',#177,.T.);
#150=FACE_BOUND('',#178,.T.);
#151=FACE_BOUND('',#179,.T.);
#152=FACE_BOUND('',#180,.T.);
#153=FACE_BOUND('',#181,.T.);
#154=FACE_BOUND('',#182,.T.);
#155=FACE_BOUND('',#183,.T.);
#156=FACE_BOUND('',#184,.T.);
#157=EDGE_LOOP('',(#185));
#158=EDGE_LOOP('',(#186));
#159=EDGE_LOOP('',(#187));
#160=EDGE_LOOP('',(#188));
#161=EDGE_LOOP('',(#189));
#162=EDGE_LOOP('',(#190));
#163=EDGE_LOOP('',(#191));
#164=EDGE_LOOP('',(#192));
#165=EDGE_LOOP('',(#193));
#166=EDGE_LOOP('',(#194));
#167=EDGE_LOOP('',(#195));
#168=EDGE_LOOP('',(#196));
#169=EDGE_LOOP('',(#197));
#170=EDGE_LOOP('',(#198));
#171=EDGE_LOOP('',(#199));
#172=EDGE_LOOP('',(#200));
#173=EDGE_LOOP('',(#201));
#174=EDGE_LOOP('',(#202));
#175=EDGE_LOOP('',(#203));
#176=EDGE_LOOP('',(#204));
#177=EDGE_LOOP('',(#205));
#178=EDGE_LOOP('',(#206));
#179=EDGE_LOOP('',(#207));
#180=EDGE_LOOP('',(#208));
#181=EDGE_LOOP('',(#209));
#182=EDGE_LOOP('',(#210));
#183=EDGE_LOOP('',(#211));
#184=EDGE_LOOP('',(#212));
#185=ORIENTED_EDGE('',*,*,#228,.F.);
#186=ORIENTED_EDGE('',*,*,#229,.F.);
#187=ORIENTED_EDGE('',*,*,#230,.T.);
#188=ORIENTED_EDGE('',*,*,#229,.T.);
#189=ORIENTED_EDGE('',*,*,#231,.F.);
#190=ORIENTED_EDGE('',*,*,#230,.F.);
#191=ORIENTED_EDGE('',*,*,#231,.T.);
#192=ORIENTED_EDGE('',*,*,#232,.T.);
#193=ORIENTED_EDGE('',*,*,#233,.F.);
#194=ORIENTED_EDGE('',*,*,#234,.F.);
#195=ORIENTED_EDGE('',*,*,#232,.F.);
#196=ORIENTED_EDGE('',*,*,#234,.T.);
#197=ORIENTED_EDGE('',*,*,#235,.F.);
#198=ORIENTED_EDGE('',*,*,#236,.F.);
#199=ORIENTED_EDGE('',*,*,#235,.T.);
#200=ORIENTED_EDGE('',*,*,#237,.F.);
#201=ORIENTED_EDGE('',*,*,#238,.F.);
#202=ORIENTED_EDGE('',*,*,#239,.F.);
#203=ORIENTED_EDGE('',*,*,#240,.T.);
#204=ORIENTED_EDGE('',*,*,#239,.T.);
#205=ORIENTED_EDGE('',*,*,#241,.T.);
#206=ORIENTED_EDGE('',*,*,#237,.T.);
#207=ORIENTED_EDGE('',*,*,#238,.T.);
#208=ORIENTED_EDGE('',*,*,#240,.F.);
#209=ORIENTED_EDGE('',*,*,#241,.F.);
#210=ORIENTED_EDGE('',*,*,#236,.T.);
#211=ORIENTED_EDGE('',*,*,#228,.T.);
#212=ORIENTED_EDGE('',*,*,#233,.T.);
#213=VERTEX_POINT('',#337);
#214=VERTEX_POINT('',#339);
#215=VERTEX_POINT('',#342);
#216=VERTEX_POINT('',#343);
#217=VERTEX_POINT('',#406);
#218=VERTEX_POINT('',#469);
#219=VERTEX_POINT('',#472);
#220=VERTEX_POINT('',#474);
#221=VERTEX_POINT('',#477);
#222=VERTEX_POINT('',#480);
#223=VERTEX_POINT('',#483);
#224=VERTEX_POINT('',#485);
#225=VERTEX_POINT('',#488);
#226=VERTEX_POINT('',#491);
#227=VERTEX_POINT('',#494);
#228=EDGE_CURVE('',#213,#213,#242,.T.);
#229=EDGE_CURVE('',#214,#214,#243,.T.);
#230=EDGE_CURVE('',#215,#215,#244,.T.);
#231=EDGE_CURVE('',#217,#217,#108,.T.);
#232=EDGE_CURVE('',#218,#218,#109,.T.);
#233=EDGE_CURVE('',#219,#219,#245,.T.);
#234=EDGE_CURVE('',#220,#220,#246,.T.);
#235=EDGE_CURVE('',#221,#221,#247,.T.);
#236=EDGE_CURVE('',#222,#222,#248,.T.);
#237=EDGE_CURVE('',#223,#223,#249,.T.);
#238=EDGE_CURVE('',#224,#224,#250,.T.);
#239=EDGE_CURVE('',#225,#225,#251,.T.);
#240=EDGE_CURVE('',#226,#226,#252,.T.);
#241=EDGE_CURVE('',#227,#227,#253,.T.);
#242=CIRCLE('',#255,0.775);
#243=CIRCLE('',#256,0.675);
#244=CIRCLE('',#258,0.675000000000001);
#245=CIRCLE('',#262,0.875);
#246=CIRCLE('',#263,0.875);
#247=CIRCLE('',#265,0.775);
#248=CIRCLE('',#267,0.775);
#249=CIRCLE('',#269,1.05);
#250=CIRCLE('',#270,0.950000000000004);
#251=CIRCLE('',#272,0.5);
#252=CIRCLE('',#274,0.5);
#253=CIRCLE('',#276,1.05);
#254=AXIS2_PLACEMENT_3D('',#335,#281,#282);
#255=AXIS2_PLACEMENT_3D('',#336,#283,#284);
#256=AXIS2_PLACEMENT_3D('',#338,#285,#286);
#257=AXIS2_PLACEMENT_3D('',#340,#287,#288);
#258=AXIS2_PLACEMENT_3D('',#341,#289,#290);
#259=AXIS2_PLACEMENT_3D('',#344,#291,#292);
#260=AXIS2_PLACEMENT_3D('',#407,#293,#294);
#261=AXIS2_PLACEMENT_3D('',#470,#295,#296);
#262=AXIS2_PLACEMENT_3D('',#471,#297,#298);
#263=AXIS2_PLACEMENT_3D('',#473,#299,#300);
#264=AXIS2_PLACEMENT_3D('',#475,#301,#302);
#265=AXIS2_PLACEMENT_3D('',#476,#303,#304);
#266=AXIS2_PLACEMENT_3D('',#478,#305,#306);
#267=AXIS2_PLACEMENT_3D('',#479,#307,#308);
#268=AXIS2_PLACEMENT_3D('',#481,#309,#310);
#269=AXIS2_PLACEMENT_3D('',#482,#311,#312);
#270=AXIS2_PLACEMENT_3D('',#484,#313,#314);
#271=AXIS2_PLACEMENT_3D('',#486,#315,#316);
#272=AXIS2_PLACEMENT_3D('',#487,#317,#318);
#273=AXIS2_PLACEMENT_3D('',#489,#319,#320);
#274=AXIS2_PLACEMENT_3D('',#490,#321,#322);
#275=AXIS2_PLACEMENT_3D('',#492,#323,#324);
#276=AXIS2_PLACEMENT_3D('',#493,#325,#326);
#277=AXIS2_PLACEMENT_3D('',#495,#327,#328);
#278=AXIS2_PLACEMENT_3D('',#496,#329,#330);
#279=AXIS2_PLACEMENT_3D('',#497,#331,#332);
#280=AXIS2_PLACEMENT_3D('',#498,#333,#334);
#281=DIRECTION('',(0.,0.,1.));
#282=DIRECTION('',(1.,0.,0.));
#283=DIRECTION('',(0.,-1.,0.));
#284=DIRECTION('',(0.,0.,1.));
#285=DIRECTION('',(-1.22464679914735E-016,1.,0.));
#286=DIRECTION('',(-1.,0.,0.));
#287=DIRECTION('',(-1.22464679914735E-016,1.,0.));
#288=DIRECTION('',(1.,1.49952362827088E-016,0.));
#289=DIRECTION('',(-1.22464679914735E-016,1.,0.));
#290=DIRECTION('',(-1.,-1.60622544071926E-016,0.));
#291=DIRECTION('',(-1.22464679914735E-016,1.,0.));
#292=DIRECTION('',(1.,7.75893501446909E-017,0.));
#293=DIRECTION('',(-1.22464679914735E-016,1.,0.));
#294=DIRECTION('',(1.,0.,0.));
#295=DIRECTION('',(0.,0.,1.));
#296=DIRECTION('',(-1.,0.,0.));
#297=DIRECTION('',(0.,1.,0.));
#298=DIRECTION('',(0.,0.,1.));
#299=DIRECTION('',(0.,-1.,0.));
#300=DIRECTION('',(0.,0.,-1.));
#301=DIRECTION('',(0.,1.,0.));
#302=DIRECTION('',(0.,0.,-1.));
#303=DIRECTION('',(0.,-1.,0.));
#304=DIRECTION('',(0.,0.,-1.));
#305=DIRECTION('',(0.,1.,0.));
#306=DIRECTION('',(0.,-4.21946641339012E-016,-1.));
#307=DIRECTION('',(0.,-1.,0.));
#308=DIRECTION('',(0.,0.,-1.));
#309=DIRECTION('',(0.,-1.,0.));
#310=DIRECTION('',(0.,0.,1.));
#311=DIRECTION('',(0.,1.,0.));
#312=DIRECTION('',(0.,0.,-1.));
#313=DIRECTION('',(0.,-1.,0.));
#314=DIRECTION('',(0.,0.,-1.));
#315=DIRECTION('',(0.,1.,0.));
#316=DIRECTION('',(0.,-1.91630710767092E-017,-1.));
#317=DIRECTION('',(0.,1.,0.));
#318=DIRECTION('',(0.,0.,1.));
#319=DIRECTION('',(1.,0.,6.12323399573677E-017));
#320=DIRECTION('',(0.,0.,1.));
#321=DIRECTION('',(0.,-1.,0.));
#322=DIRECTION('',(0.,0.,-1.));
#323=DIRECTION('',(0.,1.,0.));
#324=DIRECTION('',(0.,0.,-1.));
#325=DIRECTION('',(0.,-1.,0.));
#326=DIRECTION('',(0.,0.,-1.));
#327=DIRECTION('',(0.,1.,0.));
#328=DIRECTION('',(0.,0.,-1.));
#329=DIRECTION('',(0.,-1.,0.));
#330=DIRECTION('',(0.,0.,1.));
#331=DIRECTION('',(0.,-1.,0.));
#332=DIRECTION('',(0.,0.,1.));
#333=DIRECTION('',(0.,1.,0.));
#334=DIRECTION('',(0.,0.,-1.));
#335=CARTESIAN_POINT('',(0.,0.,0.));
#336=CARTESIAN_POINT('',(-2.21555676989971E-032,4.8,0.));
#337=CARTESIAN_POINT('',(-2.21555676989971E-032,4.8,0.775));
#338=CARTESIAN_POINT('',(1.22464679914737E-017,4.7,0.));
#339=CARTESIAN_POINT('',(-0.675,4.7,0.));
#340=CARTESIAN_POINT('',(1.22464679914737E-017,4.7,0.));
#341=CARTESIAN_POINT('',(4.89858719658941E-016,0.799999999999999,0.));
#342=CARTESIAN_POINT('',(-0.675,0.799999999999999,0.));
#343=CARTESIAN_POINT('',(5.37584605401563E-016,0.410288568296998,0.));
#344=CARTESIAN_POINT('',(4.89858719658941E-016,0.799999999999999,0.));
#345=CARTESIAN_POINT('',(0.3,1.4,-0.604669331122392));
#346=CARTESIAN_POINT('',(0.3,1.43168016454655,-0.604669331122392));
#347=CARTESIAN_POINT('',(0.294811047690535,1.4637912702258,-0.607311972077175));
#348=CARTESIAN_POINT('',(0.285031863656427,1.49357797123546,-0.611867499300743));
#349=CARTESIAN_POINT('',(0.275277731257981,1.5232883667396,-0.616411356490507));
#350=CARTESIAN_POINT('',(0.260760349179381,1.55150509963407,-0.6229014913328));
#351=CARTESIAN_POINT('',(0.242636188783911,1.57643038256609,-0.629883068428116));
#352=CARTESIAN_POINT('',(0.223342815284133,1.60296362784213,-0.63731503612087));
#353=CARTESIAN_POINT('',(0.199451673733724,1.6264948947784,-0.64545944707375));
#354=CARTESIAN_POINT('',(0.172557548387667,1.64540556736643,-0.652570986555822));
#355=CARTESIAN_POINT('',(0.144328218402585,1.66525509248979,-0.660035590522605));
#356=CARTESIAN_POINT('',(0.111892019570559,1.68055526276697,-0.666534731025384));
#357=CARTESIAN_POINT('',(0.0780123474194081,1.68967925995852,-0.670476751013869));
#358=CARTESIAN_POINT('',(0.0461241859623531,1.6982669314767,-0.674187051671412));
#359=CARTESIAN_POINT('',(0.0119990020812968,1.70159462189115,-0.675706976224254));
#360=CARTESIAN_POINT('',(-0.021134311962122,1.69925464216598,-0.674669060249459));
#361=CARTESIAN_POINT('',(-0.0519941738067501,1.69707522084569,-0.673702361188009));
#362=CARTESIAN_POINT('',(-0.0828234920750728,1.68995820864551,-0.670518221738303));
#363=CARTESIAN_POINT('',(-0.111229383463905,1.67861806160807,-0.665772501876009));
#364=CARTESIAN_POINT('',(-0.140086240859386,1.66709788076165,-0.660951439955066));
#365=CARTESIAN_POINT('',(-0.167193291756788,1.65097102527045,-0.654430771395919));
#366=CARTESIAN_POINT('',(-0.190849332604237,1.63146604987453,-0.647457745528245));
#367=CARTESIAN_POINT('',(-0.216369413532749,1.6104241285394,-0.639935261710804));
#368=CARTESIAN_POINT('',(-0.23856728716774,1.58489444877372,-0.631712584101437));
#369=CARTESIAN_POINT('',(-0.255882666624946,1.55660159935616,-0.624619132688799));
#370=CARTESIAN_POINT('',(-0.273900599881721,1.52716079653059,-0.617237871745082));
#371=CARTESIAN_POINT('',(-0.287128940375064,1.49376328035953,-0.6109349811444));
#372=CARTESIAN_POINT('',(-0.294076668674543,1.45932042600389,-0.607572146284936));
#373=CARTESIAN_POINT('',(-0.297992776390647,1.43990660872539,-0.605676674416509));
#374=CARTESIAN_POINT('',(-0.3,1.419895351582,-0.604669331122391));
#375=CARTESIAN_POINT('',(-0.3,1.4,-0.604669331122391));
#376=CARTESIAN_POINT('',(-0.3,1.36831983545345,-0.604669331122391));
#377=CARTESIAN_POINT('',(-0.294811047690536,1.3362087297742,-0.607311972077174));
#378=CARTESIAN_POINT('',(-0.285031863656429,1.30642202876455,-0.611867499300742));
#379=CARTESIAN_POINT('',(-0.275277731257982,1.2767116332604,-0.616411356490506));
#380=CARTESIAN_POINT('',(-0.260760349179383,1.24849490036593,-0.622901491332799));
#381=CARTESIAN_POINT('',(-0.242636188783913,1.22356961743391,-0.629883068428115));
#382=CARTESIAN_POINT('',(-0.223342815284136,1.19703637215788,-0.637315036120869));
#383=CARTESIAN_POINT('',(-0.199451673733728,1.17350510522161,-0.645459447073748));
#384=CARTESIAN_POINT('',(-0.172557548387671,1.15459443263358,-0.65257098655582));
#385=CARTESIAN_POINT('',(-0.144328218402589,1.13474490751022,-0.660035590522604));
#386=CARTESIAN_POINT('',(-0.111892019570564,1.11944473723303,-0.666534731025383));
#387=CARTESIAN_POINT('',(-0.0780123474194127,1.11032074004149,-0.670476751013869));
#388=CARTESIAN_POINT('',(-0.0461241859623578,1.1017330685233,-0.674187051671412));
#389=CARTESIAN_POINT('',(-0.0119990020813014,1.09840537810885,-0.675706976224253));
#390=CARTESIAN_POINT('',(0.0211343119621176,1.10074535783402,-0.674669060249459));
#391=CARTESIAN_POINT('',(0.0519941738067458,1.10292477915431,-0.67370236118801));
#392=CARTESIAN_POINT('',(0.0828234920750687,1.11004179135448,-0.670518221738304));
#393=CARTESIAN_POINT('',(0.111229383463901,1.12138193839193,-0.665772501876009));
#394=CARTESIAN_POINT('',(0.140086240859383,1.13290211923835,-0.660951439955067));
#395=CARTESIAN_POINT('',(0.167193291756784,1.14902897472955,-0.65443077139592));
#396=CARTESIAN_POINT('',(0.190849332604234,1.16853395012547,-0.647457745528246));
#397=CARTESIAN_POINT('',(0.216369413532746,1.1895758714606,-0.639935261710806));
#398=CARTESIAN_POINT('',(0.238567287167737,1.21510555122628,-0.631712584101439));
#399=CARTESIAN_POINT('',(0.255882666624944,1.24339840064384,-0.6246191326888));
#400=CARTESIAN_POINT('',(0.273900599881719,1.27283920346941,-0.617237871745083));
#401=CARTESIAN_POINT('',(0.287128940375063,1.30623671964046,-0.610934981144401));
#402=CARTESIAN_POINT('',(0.294076668674542,1.3406795739961,-0.607572146284937));
#403=CARTESIAN_POINT('',(0.297992776390647,1.36009339127461,-0.60567667441651));
#404=CARTESIAN_POINT('',(0.3,1.380104648418,-0.604669331122392));
#405=CARTESIAN_POINT('',(0.3,1.4,-0.604669331122392));
#406=CARTESIAN_POINT('',(0.3,1.4,-0.604669331122392));
#407=CARTESIAN_POINT('',(0.,4.8,0.));
#408=CARTESIAN_POINT('',(-4.13712801384833E-014,1.1,-0.875));
#409=CARTESIAN_POINT('',(-0.0325242049188987,1.1,-0.874999999999998));
#410=CARTESIAN_POINT('',(-0.0654941400433264,1.10545480940638,-0.873089853391323));
#411=CARTESIAN_POINT('',(-0.0961356519371096,1.11582059112837,-0.869702786258977));
#412=CARTESIAN_POINT('',(-0.126738754167757,1.12617337916437,-0.866319964873643));
#413=CARTESIAN_POINT('',(-0.155854169758086,1.14166799017805,-0.861402735608657));
#414=CARTESIAN_POINT('',(-0.181368305210997,1.16103234975233,-0.855996809494574));
#415=CARTESIAN_POINT('',(-0.207724683507602,1.18103594295083,-0.850412429260754));
#416=CARTESIAN_POINT('',(-0.230963544590115,1.20570156018158,-0.844185719197145));
#417=CARTESIAN_POINT('',(-0.249368499117945,1.2332206498164,-0.83871350987549));
#418=CARTESIAN_POINT('',(-0.268328909146057,1.26157025656428,-0.83307615106858));
#419=CARTESIAN_POINT('',(-0.282681146011248,1.29380366699356,-0.828127332952841));
#420=CARTESIAN_POINT('',(-0.291037232568695,1.32721724614474,-0.825180179875132));
#421=CARTESIAN_POINT('',(-0.296951702236944,1.35086750383878,-0.823094173780537));
#422=CARTESIAN_POINT('',(-0.3,1.3755323261858,-0.82196411113868));
#423=CARTESIAN_POINT('',(-0.3,1.4,-0.82196411113868));
#424=CARTESIAN_POINT('',(-0.3,1.43246085233205,-0.82196411113868));
#425=CARTESIAN_POINT('',(-0.294564959456821,1.46536535552643,-0.823999709671827));
#426=CARTESIAN_POINT('',(-0.284246287651518,1.49593772957669,-0.827543985511544));
#427=CARTESIAN_POINT('',(-0.273942833109762,1.52646501760407,-0.831083034498372));
#428=CARTESIAN_POINT('',(-0.258532643057658,1.55550388344831,-0.836174216629492));
#429=CARTESIAN_POINT('',(-0.239260071390235,1.58098236996553,-0.841652908411977));
#430=CARTESIAN_POINT('',(-0.219259889649881,1.60742276254038,-0.847338440848434));
#431=CARTESIAN_POINT('',(-0.194559651431096,1.63075789736287,-0.853558078204002));
#432=CARTESIAN_POINT('',(-0.166971808377008,1.64923967422405,-0.858921076238854));
#433=CARTESIAN_POINT('',(-0.138632780576071,1.66822468828452,-0.864430102446814));
#434=CARTESIAN_POINT('',(-0.106394919575264,1.68260605553042,-0.869154066818695));
#435=CARTESIAN_POINT('',(-0.0729905532820122,1.6909851871343,-0.871950330656274));
#436=CARTESIAN_POINT('',(-0.0492697946999644,1.69693528827252,-0.873935984233433));
#437=CARTESIAN_POINT('',(-0.0245361144314251,1.7,-0.875));
#438=CARTESIAN_POINT('',(-1.37106899065001E-014,1.7,-0.875));
#439=CARTESIAN_POINT('',(0.0325242049188429,1.7,-0.875000000000001));
#440=CARTESIAN_POINT('',(0.065494140043271,1.69454519059363,-0.873089853391327));
#441=CARTESIAN_POINT('',(0.0961356519370556,1.68417940887164,-0.869702786258982));
#442=CARTESIAN_POINT('',(0.126738754167705,1.67382662083566,-0.86631996487365));
#443=CARTESIAN_POINT('',(0.155854169758036,1.65833200982198,-0.861402735608666));
#444=CARTESIAN_POINT('',(0.181368305210951,1.6389676502477,-0.855996809494584));
#445=CARTESIAN_POINT('',(0.207724683507558,1.61896405704921,-0.850412429260764));
#446=CARTESIAN_POINT('',(0.230963544590076,1.59429843981846,-0.844185719197156));
#447=CARTESIAN_POINT('',(0.24936849911791,1.56677935018365,-0.8387135098755));
#448=CARTESIAN_POINT('',(0.268328909146029,1.53842974343578,-0.833076151068589));
#449=CARTESIAN_POINT('',(0.282681146011226,1.5061963330065,-0.828127332952849));
#450=CARTESIAN_POINT('',(0.291037232568679,1.47278275385532,-0.825180179875138));
#451=CARTESIAN_POINT('',(0.296951702236939,1.44913249616126,-0.823094173780539));
#452=CARTESIAN_POINT('',(0.3,1.42446767381422,-0.82196411113868));
#453=CARTESIAN_POINT('',(0.3,1.4,-0.82196411113868));
#454=CARTESIAN_POINT('',(0.3,1.36753914766795,-0.82196411113868));
#455=CARTESIAN_POINT('',(0.294564959456821,1.33463464447357,-0.823999709671827));
#456=CARTESIAN_POINT('',(0.284246287651518,1.30406227042331,-0.827543985511544));
#457=CARTESIAN_POINT('',(0.273942833109762,1.27353498239593,-0.831083034498372));
#458=CARTESIAN_POINT('',(0.258532643057658,1.24449611655169,-0.836174216629492));
#459=CARTESIAN_POINT('',(0.239260071390235,1.21901763003447,-0.841652908411977));
#460=CARTESIAN_POINT('',(0.219259889649881,1.19257723745962,-0.847338440848434));
#461=CARTESIAN_POINT('',(0.194559651431096,1.16924210263713,-0.853558078204002));
#462=CARTESIAN_POINT('',(0.166971808377008,1.15076032577595,-0.858921076238854));
#463=CARTESIAN_POINT('',(0.138632780576071,1.13177531171548,-0.864430102446814));
#464=CARTESIAN_POINT('',(0.106394919575264,1.11739394446958,-0.869154066818695));
#465=CARTESIAN_POINT('',(0.0729905532820122,1.1090148128657,-0.871950330656274));
#466=CARTESIAN_POINT('',(0.0492697946999468,1.10306471172747,-0.873935984233435));
#467=CARTESIAN_POINT('',(0.0245361144313883,1.1,-0.875000000000001));
#468=CARTESIAN_POINT('',(-4.13712801384833E-014,1.1,-0.875));
#469=CARTESIAN_POINT('',(-4.13712801384833E-014,1.1,-0.875));
#470=CARTESIAN_POINT('',(0.,1.4,-10.));
#471=CARTESIAN_POINT('',(0.,4.8,0.));
#472=CARTESIAN_POINT('',(0.,4.8,0.875));
#473=CARTESIAN_POINT('',(0.,0.7,0.));
#474=CARTESIAN_POINT('',(0.,0.7,-0.875));
#475=CARTESIAN_POINT('',(0.,-2.47487373415292,0.));
#476=CARTESIAN_POINT('',(0.,0.15,0.));
#477=CARTESIAN_POINT('',(0.,0.15,-0.775));
#478=CARTESIAN_POINT('',(0.,0.7,0.));
#479=CARTESIAN_POINT('',(0.,0.,0.));
#480=CARTESIAN_POINT('',(0.,0.,-0.775));
#481=CARTESIAN_POINT('',(0.,0.,0.));
#482=CARTESIAN_POINT('',(0.,-1.75000000000001,0.));
#483=CARTESIAN_POINT('',(0.,-1.75000000000001,-1.05));
#484=CARTESIAN_POINT('',(0.,-1.9,0.));
#485=CARTESIAN_POINT('',(0.,-1.9,-0.950000000000004));
#486=CARTESIAN_POINT('',(0.,-1.9,0.));
#487=CARTESIAN_POINT('',(0.,-9.5,0.));
#488=CARTESIAN_POINT('',(0.,-9.5,0.5));
#489=CARTESIAN_POINT('',(0.,-9.5,0.));
#490=CARTESIAN_POINT('',(0.,-1.9,0.));
#491=CARTESIAN_POINT('',(0.,-1.9,-0.5));
#492=CARTESIAN_POINT('',(0.,-10.,0.));
#493=CARTESIAN_POINT('',(0.,0.,0.));
#494=CARTESIAN_POINT('',(0.,0.,-1.05));
#495=CARTESIAN_POINT('',(0.,-1.9,0.));
#496=CARTESIAN_POINT('',(0.,-1.9,0.));
#497=CARTESIAN_POINT('',(0.,0.,0.));
#498=CARTESIAN_POINT('',(0.,4.8,0.));
#499=(
GEOMETRIC_REPRESENTATION_CONTEXT(3)
GLOBAL_UNCERTAINTY_ASSIGNED_CONTEXT((#500))
GLOBAL_UNIT_ASSIGNED_CONTEXT((#506,#502,#501))
REPRESENTATION_CONTEXT('SGM-0','TOP_LEVEL_ASSEMBLY_PART')
);
#500=UNCERTAINTY_MEASURE_WITH_UNIT(LENGTH_MEASURE(0.0508),#506,
'DISTANCE_ACCURACY_VALUE','Maximum Tolerance applied to model');
#501=(
NAMED_UNIT(*)
SI_UNIT($,.STERADIAN.)
SOLID_ANGLE_UNIT()
);
#502=(
CONVERSION_BASED_UNIT('DEGREE',#504)
NAMED_UNIT(#503)
PLANE_ANGLE_UNIT()
);
#503=DIMENSIONAL_EXPONENTS(0.,0.,0.,0.,0.,0.,0.);
#504=PLANE_ANGLE_MEASURE_WITH_UNIT(PLANE_ANGLE_MEASURE(0.0174532925),#505);
#505=(
NAMED_UNIT(*)
PLANE_ANGLE_UNIT()
SI_UNIT($,.RADIAN.)
);
#506=(
LENGTH_UNIT()
NAMED_UNIT(*)
SI_UNIT(.MILLI.,.METRE.)
);
ENDSEC;
END-ISO-10303-21;
