ISO-10303-21;
HEADER;
/* Generated by software containing ST-Developer
 * from STEP Tools, Inc. (www.steptools.com) 
 */
/* OPTION: using custom schema-name function */

FILE_DESCRIPTION(
/* description */ (''),
/* implementation_level */ '2;1');

FILE_NAME(
/* name */ 'FM21S-070-13-01_1010090000006.stp',
/* time_stamp */ '2023-07-31T14:52:07+08:00',
/* author */ (''),
/* organization */ (''),
/* preprocessor_version */ 'ST-DEVELOPER v11',
/* originating_system */ 'SIEMENS PLM Software NX 7.5',
/* authorisation */ '');

FILE_SCHEMA (('CONFIG_CONTROL_DESIGN'));
ENDSEC;

DATA;
#10=GEOMETRICALLY_BOUNDED_WIREFRAME_SHAPE_REPRESENTATION('_model1-None',
(#97),#405);
#11=SHAPE_REPRESENTATION_RELATIONSHIP('None',
'relationship between _model1-None and _model1-None',#96,#13);
#12=SHAPE_REPRESENTATION_RELATIONSHIP('None',
'relationship between _model1-None and _model1-None',#96,#10);
#13=ADVANCED_BREP_SHAPE_REPRESENTATION('_model1-None',(#98),#405);
#14=CC_DESIGN_APPROVAL(#26,(#84));
#15=CC_DESIGN_APPROVAL(#27,(#86));
#16=CC_DESIGN_APPROVAL(#28,(#33));
#17=APPROVAL_PERSON_ORGANIZATION(#71,#26,#20);
#18=APPROVAL_PERSON_ORGANIZATION(#72,#27,#21);
#19=APPROVAL_PERSON_ORGANIZATION(#73,#28,#22);
#20=APPROVAL_ROLE('approver');
#21=APPROVAL_ROLE('approver');
#22=APPROVAL_ROLE('approver');
#23=APPROVAL_DATE_TIME(#41,#26);
#24=APPROVAL_DATE_TIME(#42,#27);
#25=APPROVAL_DATE_TIME(#43,#28);
#26=APPROVAL(#29,' ');
#27=APPROVAL(#30,' ');
#28=APPROVAL(#31,' ');
#29=APPROVAL_STATUS('not_yet_approved');
#30=APPROVAL_STATUS('not_yet_approved');
#31=APPROVAL_STATUS('not_yet_approved');
#32=CC_DESIGN_SECURITY_CLASSIFICATION(#33,(#86));
#33=SECURITY_CLASSIFICATION(' ',' ',#34);
#34=SECURITY_CLASSIFICATION_LEVEL('confidential');
#35=CC_DESIGN_DATE_AND_TIME_ASSIGNMENT(#39,#37,(#84));
#36=CC_DESIGN_DATE_AND_TIME_ASSIGNMENT(#40,#38,(#33));
#37=DATE_TIME_ROLE('creation_date');
#38=DATE_TIME_ROLE('classification_date');
#39=DATE_AND_TIME(#54,#44);
#40=DATE_AND_TIME(#55,#45);
#41=DATE_AND_TIME(#56,#46);
#42=DATE_AND_TIME(#57,#47);
#43=DATE_AND_TIME(#58,#48);
#44=LOCAL_TIME(0,0,0.,#49);
#45=LOCAL_TIME(0,0,0.,#50);
#46=LOCAL_TIME(0,0,0.,#51);
#47=LOCAL_TIME(0,0,0.,#52);
#48=LOCAL_TIME(0,0,0.,#53);
#49=COORDINATED_UNIVERSAL_TIME_OFFSET(0,0,.BEHIND.);
#50=COORDINATED_UNIVERSAL_TIME_OFFSET(0,0,.BEHIND.);
#51=COORDINATED_UNIVERSAL_TIME_OFFSET(0,0,.BEHIND.);
#52=COORDINATED_UNIVERSAL_TIME_OFFSET(0,0,.BEHIND.);
#53=COORDINATED_UNIVERSAL_TIME_OFFSET(0,0,.BEHIND.);
#54=CALENDAR_DATE(0,1,1);
#55=CALENDAR_DATE(0,1,1);
#56=CALENDAR_DATE(0,1,1);
#57=CALENDAR_DATE(0,1,1);
#58=CALENDAR_DATE(0,1,1);
#59=CC_DESIGN_PERSON_AND_ORGANIZATION_ASSIGNMENT(#67,#63,(#84,#86));
#60=CC_DESIGN_PERSON_AND_ORGANIZATION_ASSIGNMENT(#68,#64,(#88));
#61=CC_DESIGN_PERSON_AND_ORGANIZATION_ASSIGNMENT(#69,#65,(#86));
#62=CC_DESIGN_PERSON_AND_ORGANIZATION_ASSIGNMENT(#70,#66,(#33));
#63=PERSON_AND_ORGANIZATION_ROLE('creator');
#64=PERSON_AND_ORGANIZATION_ROLE('design_owner');
#65=PERSON_AND_ORGANIZATION_ROLE('design_supplier');
#66=PERSON_AND_ORGANIZATION_ROLE('classification_officer');
#67=PERSON_AND_ORGANIZATION(#81,#74);
#68=PERSON_AND_ORGANIZATION(#81,#75);
#69=PERSON_AND_ORGANIZATION(#81,#76);
#70=PERSON_AND_ORGANIZATION(#81,#77);
#71=PERSON_AND_ORGANIZATION(#81,#78);
#72=PERSON_AND_ORGANIZATION(#81,#79);
#73=PERSON_AND_ORGANIZATION(#81,#80);
#74=ORGANIZATION(' ',' ',' ');
#75=ORGANIZATION(' ',' ',' ');
#76=ORGANIZATION(' ',' ',' ');
#77=ORGANIZATION(' ',' ',' ');
#78=ORGANIZATION(' ',' ',' ');
#79=ORGANIZATION(' ',' ',' ');
#80=ORGANIZATION(' ',' ',' ');
#81=PERSON(' ',' ',' ',(' '),$,$);
#82=SHAPE_DEFINITION_REPRESENTATION(#83,#96);
#83=PRODUCT_DEFINITION_SHAPE('','',#84);
#84=PRODUCT_DEFINITION(' ','',#86,#85);
#85=DESIGN_CONTEXT('',#95,'design');
#86=PRODUCT_DEFINITION_FORMATION_WITH_SPECIFIED_SOURCE(' ',' ',#88,.NOT_KNOWN.);
#87=PRODUCT_RELATED_PRODUCT_CATEGORY('detail','',(#88));
#88=PRODUCT('_model1','_model1',' ',(#93));
#89=PRODUCT_CATEGORY_RELATIONSHIP(' ',' ',#91,#92);
#90=PRODUCT_CATEGORY_RELATIONSHIP('','',#92,#87);
#91=PRODUCT_CATEGORY('part',' ');
#92=PRODUCT_CATEGORY(' ','');
#93=MECHANICAL_CONTEXT(' ',#95,'mechanical');
#94=APPLICATION_PROTOCOL_DEFINITION('international standard',
'config_control_design',1994,#95);
#95=APPLICATION_CONTEXT(
'configuration controlled 3D designs of mechanical parts and assemblies');
#96=SHAPE_REPRESENTATION('_model1-None',(#265),#405);
#97=GEOMETRIC_CURVE_SET('None',(#359));
#98=MANIFOLD_SOLID_BREP('2',#99);
#99=CLOSED_SHELL('',(#109,#110,#111,#112,#113,#114,#115,#116,#117,#118,#119,
#120,#121,#122,#123));
#100=PLANE('',#293);
#101=PLANE('',#294);
#102=PLANE('',#295);
#103=CYLINDRICAL_SURFACE('',#276,3.5);
#104=CYLINDRICAL_SURFACE('',#279,2.55);
#105=CYLINDRICAL_SURFACE('',#284,2.7);
#106=CYLINDRICAL_SURFACE('',#286,3.9);
#107=CYLINDRICAL_SURFACE('',#289,4.5);
#108=CYLINDRICAL_SURFACE('',#292,4.);
#109=ADVANCED_FACE('',(#130,#131),#124,.T.);
#110=ADVANCED_FACE('',(#132,#133),#125,.F.);
#111=ADVANCED_FACE('',(#134,#135),#126,.T.);
#112=ADVANCED_FACE('',(#136,#137),#103,.T.);
#113=ADVANCED_FACE('',(#138,#139),#104,.F.);
#114=ADVANCED_FACE('',(#140,#141),#127,.F.);
#115=ADVANCED_FACE('',(#142,#143),#128,.F.);
#116=ADVANCED_FACE('',(#144,#145),#105,.F.);
#117=ADVANCED_FACE('',(#146,#147),#106,.T.);
#118=ADVANCED_FACE('',(#148,#149),#107,.T.);
#119=ADVANCED_FACE('',(#150,#151),#129,.T.);
#120=ADVANCED_FACE('',(#152,#153),#108,.T.);
#121=ADVANCED_FACE('',(#154,#155),#100,.T.);
#122=ADVANCED_FACE('',(#156,#157),#101,.T.);
#123=ADVANCED_FACE('',(#158,#159),#102,.T.);
#124=CONICAL_SURFACE('',#268,3.5,44.9999999999998);
#125=CONICAL_SURFACE('',#271,2.7,18.4349488229219);
#126=CONICAL_SURFACE('',#274,3.5,11.3099324740203);
#127=CONICAL_SURFACE('',#281,1664.2794823505,58.9999999999997);
#128=CONICAL_SURFACE('',#283,2.7,58.9999999999997);
#129=CONICAL_SURFACE('',#291,4.,25.);
#130=FACE_BOUND('',#160,.T.);
#131=FACE_BOUND('',#161,.T.);
#132=FACE_BOUND('',#162,.T.);
#133=FACE_BOUND('',#163,.T.);
#134=FACE_BOUND('',#164,.T.);
#135=FACE_BOUND('',#165,.T.);
#136=FACE_BOUND('',#166,.T.);
#137=FACE_BOUND('',#167,.T.);
#138=FACE_BOUND('',#168,.T.);
#139=FACE_BOUND('',#169,.T.);
#140=FACE_BOUND('',#170,.T.);
#141=FACE_BOUND('',#171,.T.);
#142=FACE_BOUND('',#172,.T.);
#143=FACE_BOUND('',#173,.T.);
#144=FACE_BOUND('',#174,.T.);
#145=FACE_BOUND('',#175,.T.);
#146=FACE_BOUND('',#176,.T.);
#147=FACE_BOUND('',#177,.T.);
#148=FACE_BOUND('',#178,.T.);
#149=FACE_BOUND('',#179,.T.);
#150=FACE_BOUND('',#180,.T.);
#151=FACE_BOUND('',#181,.T.);
#152=FACE_BOUND('',#182,.T.);
#153=FACE_BOUND('',#183,.T.);
#154=FACE_BOUND('',#184,.T.);
#155=FACE_BOUND('',#185,.T.);
#156=FACE_BOUND('',#186,.T.);
#157=FACE_BOUND('',#187,.T.);
#158=FACE_BOUND('',#188,.T.);
#159=FACE_BOUND('',#189,.T.);
#160=EDGE_LOOP('',(#190));
#161=EDGE_LOOP('',(#191));
#162=EDGE_LOOP('',(#192));
#163=EDGE_LOOP('',(#193));
#164=EDGE_LOOP('',(#194));
#165=EDGE_LOOP('',(#195));
#166=EDGE_LOOP('',(#196));
#167=EDGE_LOOP('',(#197));
#168=EDGE_LOOP('',(#198));
#169=EDGE_LOOP('',(#199));
#170=EDGE_LOOP('',(#200));
#171=EDGE_LOOP('',(#201));
#172=EDGE_LOOP('',(#202));
#173=EDGE_LOOP('',(#203));
#174=EDGE_LOOP('',(#204));
#175=EDGE_LOOP('',(#205));
#176=EDGE_LOOP('',(#206));
#177=EDGE_LOOP('',(#207));
#178=EDGE_LOOP('',(#208));
#179=EDGE_LOOP('',(#209));
#180=EDGE_LOOP('',(#210));
#181=EDGE_LOOP('',(#211));
#182=EDGE_LOOP('',(#212));
#183=EDGE_LOOP('',(#213));
#184=EDGE_LOOP('',(#214));
#185=EDGE_LOOP('',(#215));
#186=EDGE_LOOP('',(#216));
#187=EDGE_LOOP('',(#217));
#188=EDGE_LOOP('',(#218));
#189=EDGE_LOOP('',(#219));
#190=ORIENTED_EDGE('',*,*,#235,.F.);
#191=ORIENTED_EDGE('',*,*,#236,.F.);
#192=ORIENTED_EDGE('',*,*,#237,.F.);
#193=ORIENTED_EDGE('',*,*,#238,.F.);
#194=ORIENTED_EDGE('',*,*,#239,.F.);
#195=ORIENTED_EDGE('',*,*,#240,.T.);
#196=ORIENTED_EDGE('',*,*,#240,.F.);
#197=ORIENTED_EDGE('',*,*,#241,.T.);
#198=ORIENTED_EDGE('',*,*,#242,.T.);
#199=ORIENTED_EDGE('',*,*,#243,.F.);
#200=ORIENTED_EDGE('',*,*,#242,.F.);
#201=ORIENTED_EDGE('',*,*,#244,.F.);
#202=ORIENTED_EDGE('',*,*,#245,.T.);
#203=ORIENTED_EDGE('',*,*,#244,.T.);
#204=ORIENTED_EDGE('',*,*,#238,.T.);
#205=ORIENTED_EDGE('',*,*,#245,.F.);
#206=ORIENTED_EDGE('',*,*,#239,.T.);
#207=ORIENTED_EDGE('',*,*,#246,.T.);
#208=ORIENTED_EDGE('',*,*,#247,.F.);
#209=ORIENTED_EDGE('',*,*,#248,.T.);
#210=ORIENTED_EDGE('',*,*,#247,.T.);
#211=ORIENTED_EDGE('',*,*,#249,.F.);
#212=ORIENTED_EDGE('',*,*,#235,.T.);
#213=ORIENTED_EDGE('',*,*,#249,.T.);
#214=ORIENTED_EDGE('',*,*,#236,.T.);
#215=ORIENTED_EDGE('',*,*,#243,.T.);
#216=ORIENTED_EDGE('',*,*,#248,.F.);
#217=ORIENTED_EDGE('',*,*,#241,.F.);
#218=ORIENTED_EDGE('',*,*,#237,.T.);
#219=ORIENTED_EDGE('',*,*,#246,.F.);
#220=VERTEX_POINT('',#361);
#221=VERTEX_POINT('',#363);
#222=VERTEX_POINT('',#366);
#223=VERTEX_POINT('',#368);
#224=VERTEX_POINT('',#371);
#225=VERTEX_POINT('',#373);
#226=VERTEX_POINT('',#376);
#227=VERTEX_POINT('',#379);
#228=VERTEX_POINT('',#381);
#229=VERTEX_POINT('',#384);
#230=VERTEX_POINT('',#387);
#231=VERTEX_POINT('',#391);
#232=VERTEX_POINT('',#394);
#233=VERTEX_POINT('',#396);
#234=VERTEX_POINT('',#399);
#235=EDGE_CURVE('',#220,#220,#250,.T.);
#236=EDGE_CURVE('',#221,#221,#251,.T.);
#237=EDGE_CURVE('',#222,#222,#252,.T.);
#238=EDGE_CURVE('',#223,#223,#253,.T.);
#239=EDGE_CURVE('',#224,#224,#254,.T.);
#240=EDGE_CURVE('',#225,#225,#255,.T.);
#241=EDGE_CURVE('',#226,#226,#256,.T.);
#242=EDGE_CURVE('',#227,#227,#257,.T.);
#243=EDGE_CURVE('',#228,#228,#258,.T.);
#244=EDGE_CURVE('',#229,#229,#259,.T.);
#245=EDGE_CURVE('',#230,#230,#260,.T.);
#246=EDGE_CURVE('',#231,#231,#261,.T.);
#247=EDGE_CURVE('',#232,#232,#262,.T.);
#248=EDGE_CURVE('',#233,#233,#263,.T.);
#249=EDGE_CURVE('',#234,#234,#264,.T.);
#250=CIRCLE('',#266,4.);
#251=CIRCLE('',#267,3.5);
#252=CIRCLE('',#269,3.2);
#253=CIRCLE('',#270,2.7);
#254=CIRCLE('',#272,3.9);
#255=CIRCLE('',#273,3.5);
#256=CIRCLE('',#275,3.5);
#257=CIRCLE('',#277,2.55);
#258=CIRCLE('',#278,2.55);
#259=CIRCLE('',#280,1.6264323105897);
#260=CIRCLE('',#282,2.7);
#261=CIRCLE('',#285,3.9);
#262=CIRCLE('',#287,4.5);
#263=CIRCLE('',#288,4.5);
#264=CIRCLE('',#290,4.);
#265=AXIS2_PLACEMENT_3D('',#358,#296,#297);
#266=AXIS2_PLACEMENT_3D('',#360,#298,#299);
#267=AXIS2_PLACEMENT_3D('',#362,#300,#301);
#268=AXIS2_PLACEMENT_3D('',#364,#302,#303);
#269=AXIS2_PLACEMENT_3D('',#365,#304,#305);
#270=AXIS2_PLACEMENT_3D('',#367,#306,#307);
#271=AXIS2_PLACEMENT_3D('',#369,#308,#309);
#272=AXIS2_PLACEMENT_3D('',#370,#310,#311);
#273=AXIS2_PLACEMENT_3D('',#372,#312,#313);
#274=AXIS2_PLACEMENT_3D('',#374,#314,#315);
#275=AXIS2_PLACEMENT_3D('',#375,#316,#317);
#276=AXIS2_PLACEMENT_3D('',#377,#318,#319);
#277=AXIS2_PLACEMENT_3D('',#378,#320,#321);
#278=AXIS2_PLACEMENT_3D('',#380,#322,#323);
#279=AXIS2_PLACEMENT_3D('',#382,#324,#325);
#280=AXIS2_PLACEMENT_3D('',#383,#326,#327);
#281=AXIS2_PLACEMENT_3D('',#385,#328,#329);
#282=AXIS2_PLACEMENT_3D('',#386,#330,#331);
#283=AXIS2_PLACEMENT_3D('',#388,#332,#333);
#284=AXIS2_PLACEMENT_3D('',#389,#334,#335);
#285=AXIS2_PLACEMENT_3D('',#390,#336,#337);
#286=AXIS2_PLACEMENT_3D('',#392,#338,#339);
#287=AXIS2_PLACEMENT_3D('',#393,#340,#341);
#288=AXIS2_PLACEMENT_3D('',#395,#342,#343);
#289=AXIS2_PLACEMENT_3D('',#397,#344,#345);
#290=AXIS2_PLACEMENT_3D('',#398,#346,#347);
#291=AXIS2_PLACEMENT_3D('',#400,#348,#349);
#292=AXIS2_PLACEMENT_3D('',#401,#350,#351);
#293=AXIS2_PLACEMENT_3D('',#402,#352,#353);
#294=AXIS2_PLACEMENT_3D('',#403,#354,#355);
#295=AXIS2_PLACEMENT_3D('',#404,#356,#357);
#296=DIRECTION('',(0.,0.,1.));
#297=DIRECTION('',(1.,0.,0.));
#298=DIRECTION('',(1.,1.18081042454225E-016,3.24725305380116E-017));
#299=DIRECTION('',(0.,-0.964204883697386,-0.265158334310106));
#300=DIRECTION('',(-1.,-1.18081042454225E-016,-3.24725305380115E-017));
#301=DIRECTION('',(0.,-0.964204883697386,-0.265158334310106));
#302=DIRECTION('',(1.,1.18081042454225E-016,3.24725305380116E-017));
#303=DIRECTION('',(1.24464464644077E-016,-0.964204883697386,-0.265158334310106));
#304=DIRECTION('',(-1.,-1.18081042454225E-016,-3.24725305380115E-017));
#305=DIRECTION('',(0.,0.964204883697387,0.265158334310106));
#306=DIRECTION('',(1.,0.,0.));
#307=DIRECTION('',(0.,-0.265158334310106,0.964204883697387));
#308=DIRECTION('',(1.,0.,0.));
#309=DIRECTION('',(-2.47793056780738E-016,0.265158334310106,-0.964204883697386));
#310=DIRECTION('',(1.,0.,0.));
#311=DIRECTION('',(0.,-0.265158334310106,0.964204883697386));
#312=DIRECTION('',(1.,0.,0.));
#313=DIRECTION('',(0.,-0.265158334310106,0.964204883697386));
#314=DIRECTION('',(1.,0.,0.));
#315=DIRECTION('',(-5.19990820808771E-016,0.265158334310106,-0.964204883697386));
#316=DIRECTION('',(1.,0.,0.));
#317=DIRECTION('',(0.,-0.265158334310106,0.964204883697386));
#318=DIRECTION('',(1.,0.,0.));
#319=DIRECTION('',(0.,0.265158334310106,-0.964204883697386));
#320=DIRECTION('',(1.,0.,0.));
#321=DIRECTION('',(0.,-0.265158334310106,0.964204883697387));
#322=DIRECTION('',(1.,0.,0.));
#323=DIRECTION('',(0.,-0.265158334310106,0.964204883697387));
#324=DIRECTION('',(1.,0.,0.));
#325=DIRECTION('',(0.,0.265158334310106,-0.964204883697387));
#326=DIRECTION('',(-1.,0.,0.));
#327=DIRECTION('',(0.,0.265158334310106,-0.964204883697385));
#328=DIRECTION('',(-1.,0.,0.));
#329=DIRECTION('',(0.,-0.265158334310106,0.964204883697386));
#330=DIRECTION('',(1.,0.,0.));
#331=DIRECTION('',(0.,-0.265158334310106,0.964204883697387));
#332=DIRECTION('',(1.,0.,0.));
#333=DIRECTION('',(-6.45196036599735E-017,0.265158334310106,-0.964204883697386));
#334=DIRECTION('',(1.,0.,0.));
#335=DIRECTION('',(0.,0.265158334310106,-0.964204883697387));
#336=DIRECTION('',(-1.,-1.18081042454225E-016,-3.24725305380115E-017));
#337=DIRECTION('',(0.,-0.964204883697386,-0.265158334310106));
#338=DIRECTION('',(-1.,-1.18081042454225E-016,-3.24725305380115E-017));
#339=DIRECTION('',(0.,0.964204883697386,0.265158334310106));
#340=DIRECTION('',(-1.,-1.18081042454225E-016,-3.24725305380115E-017));
#341=DIRECTION('',(9.6373526443156E-017,-0.964204883697386,-0.265158334310106));
#342=DIRECTION('',(-1.,-1.18081042454225E-016,-3.24725305380115E-017));
#343=DIRECTION('',(9.63735264431559E-017,-0.964204883697386,-0.265158334310106));
#344=DIRECTION('',(-1.,-1.18081042454225E-016,-3.24725305380115E-017));
#345=DIRECTION('',(0.,0.964204883697386,0.265158334310106));
#346=DIRECTION('',(-1.,-1.18081042454225E-016,-3.24725305380115E-017));
#347=DIRECTION('',(1.0842021724855E-016,-0.964204883697386,-0.265158334310106));
#348=DIRECTION('',(1.,1.18081042454225E-016,3.24725305380115E-017));
#349=DIRECTION('',(2.2130919357538E-017,-0.964204883697386,-0.265158334310106));
#350=DIRECTION('',(-1.,-1.18081042454225E-016,-3.24725305380115E-017));
#351=DIRECTION('',(0.,0.964204883697386,0.265158334310106));
#352=DIRECTION('',(-1.,-1.18081042454225E-016,-3.24725305380115E-017));
#353=DIRECTION('',(-1.23165366794353E-016,0.964204883697386,0.265158334310106));
#354=DIRECTION('',(1.,1.18081042454225E-016,3.24725305380115E-017));
#355=DIRECTION('',(1.22298005056365E-016,-0.964204883697386,-0.265158334310106));
#356=DIRECTION('',(1.,1.18081042454225E-016,3.24725305380115E-017));
#357=DIRECTION('',(1.23165366794353E-016,-0.964204883697386,-0.265158334310106));
#358=CARTESIAN_POINT('',(0.,0.,0.));
#359=CARTESIAN_POINT('',(0.,0.,0.));
#360=CARTESIAN_POINT('',(-9.7,6.00000000000001,-21.));
#361=CARTESIAN_POINT('',(-9.7,2.14318046521047,-22.0606333372404));
#362=CARTESIAN_POINT('',(-10.2,6.00000000000001,-21.));
#363=CARTESIAN_POINT('',(-10.2,2.62528290705916,-21.9280541700854));
#364=CARTESIAN_POINT('',(-10.2,6.00000000000001,-21.));
#365=CARTESIAN_POINT('',(14.5,6.00000000000002,-21.));
#366=CARTESIAN_POINT('',(14.5,9.08545562783165,-20.1514933302077));
#367=CARTESIAN_POINT('',(13.,6.00000000000002,-21.));
#368=CARTESIAN_POINT('',(13.,5.28407249736273,-18.3966468140171));
#369=CARTESIAN_POINT('',(13.,6.00000000000002,-21.));
#370=CARTESIAN_POINT('',(7.,6.00000000000002,-21.));
#371=CARTESIAN_POINT('',(7.,4.9658824961906,-17.2396009535802));
#372=CARTESIAN_POINT('',(5.,6.00000000000002,-21.));
#373=CARTESIAN_POINT('',(5.,5.07194582991464,-17.6252829070591));
#374=CARTESIAN_POINT('',(5.,6.00000000000002,-21.));
#375=CARTESIAN_POINT('',(3.5,6.00000000000002,-21.));
#376=CARTESIAN_POINT('',(3.5,5.07194582991464,-17.6252829070591));
#377=CARTESIAN_POINT('',(14.5,6.00000000000002,-21.));
#378=CARTESIAN_POINT('',(1.8,6.00000000000002,-21.));
#379=CARTESIAN_POINT('',(1.8,5.32384624750925,-18.5412775465717));
#380=CARTESIAN_POINT('',(-10.2,6.00000000000002,-21.));
#381=CARTESIAN_POINT('',(-10.2,5.32384624750925,-18.5412775465717));
#382=CARTESIAN_POINT('',(14.5,6.00000000000002,-21.));
#383=CARTESIAN_POINT('',(2.35493545357293,6.00000000000002,-21.));
#384=CARTESIAN_POINT('',(2.35493545357293,6.43126208234412,-22.5682139768738));
#385=CARTESIAN_POINT('',(-996.66780542148,6.00000000000002,-21.));
#386=CARTESIAN_POINT('',(3.,6.00000000000002,-21.));
#387=CARTESIAN_POINT('',(3.,5.28407249736273,-18.3966468140171));
#388=CARTESIAN_POINT('',(3.,6.00000000000002,-21.));
#389=CARTESIAN_POINT('',(14.5,6.00000000000002,-21.));
#390=CARTESIAN_POINT('',(14.5,6.00000000000002,-21.));
#391=CARTESIAN_POINT('',(14.5,2.23960095358021,-22.0341175038094));
#392=CARTESIAN_POINT('',(-10.2,6.00000000000001,-21.));
#393=CARTESIAN_POINT('',(2.2,6.00000000000001,-21.));
#394=CARTESIAN_POINT('',(2.2,1.66107802336178,-22.1932125043955));
#395=CARTESIAN_POINT('',(3.5,6.00000000000002,-21.));
#396=CARTESIAN_POINT('',(3.5,1.66107802336178,-22.1932125043955));
#397=CARTESIAN_POINT('',(-10.2,6.00000000000001,-21.));
#398=CARTESIAN_POINT('',(1.12774653974522,6.00000000000001,-21.));
#399=CARTESIAN_POINT('',(1.12774653974522,2.14318046521047,-22.0606333372404));
#400=CARTESIAN_POINT('',(1.12774653974522,6.00000000000001,-21.));
#401=CARTESIAN_POINT('',(-10.2,6.00000000000001,-21.));
#402=CARTESIAN_POINT('',(-10.2,6.00000000000001,-21.));
#403=CARTESIAN_POINT('',(3.5,2.23960095358021,-22.0341175038094));
#404=CARTESIAN_POINT('',(14.5,6.00000000000002,-21.));
#405=(
GEOMETRIC_REPRESENTATION_CONTEXT(3)
GLOBAL_UNCERTAINTY_ASSIGNED_CONTEXT((#406))
GLOBAL_UNIT_ASSIGNED_CONTEXT((#412,#408,#407))
REPRESENTATION_CONTEXT('FM21S-070-13-01_1010090000006',
'TOP_LEVEL_ASSEMBLY_PART')
);
#406=UNCERTAINTY_MEASURE_WITH_UNIT(LENGTH_MEASURE(2.E-005),#412,
'DISTANCE_ACCURACY_VALUE','Maximum Tolerance applied to model');
#407=(
NAMED_UNIT(*)
SI_UNIT($,.STERADIAN.)
SOLID_ANGLE_UNIT()
);
#408=(
CONVERSION_BASED_UNIT('DEGREE',#410)
NAMED_UNIT(#409)
PLANE_ANGLE_UNIT()
);
#409=DIMENSIONAL_EXPONENTS(0.,0.,0.,0.,0.,0.,0.);
#410=PLANE_ANGLE_MEASURE_WITH_UNIT(PLANE_ANGLE_MEASURE(0.0174532925),#411);
#411=(
NAMED_UNIT(*)
PLANE_ANGLE_UNIT()
SI_UNIT($,.RADIAN.)
);
#412=(
LENGTH_UNIT()
NAMED_UNIT(*)
SI_UNIT(.MILLI.,.METRE.)
);
ENDSEC;
END-ISO-10303-21;
