ISO-10303-21;
HEADER;
/* Generated by software containing ST-Developer
 * from STEP Tools, Inc. (www.steptools.com) 
 */
/* OPTION: using custom schema-name function */

FILE_DESCRIPTION(
/* description */ (''),
/* implementation_level */ '2;1');

FILE_NAME(
/* name */ 'DAOXIANGXIAO.stp',
/* time_stamp */ '2023-07-31T14:11:12+08:00',
/* author */ (''),
/* organization */ (''),
/* preprocessor_version */ 'ST-DEVELOPER v11',
/* originating_system */ 'SIEMENS PLM Software NX 7.5',
/* authorisation */ '');

FILE_SCHEMA (('CONFIG_CONTROL_DESIGN'));
ENDSEC;

DATA;
#10=SHAPE_REPRESENTATION_RELATIONSHIP('None',
'relationship between fang57B4my41-None and fang57B4my41-None',#94,#11);
#11=ADVANCED_BREP_SHAPE_REPRESENTATION('fang57B4my41-None',(#95),#473);
#12=CC_DESIGN_APPROVAL(#24,(#82));
#13=CC_DESIGN_APPROVAL(#25,(#84));
#14=CC_DESIGN_APPROVAL(#26,(#31));
#15=APPROVAL_PERSON_ORGANIZATION(#69,#24,#18);
#16=APPROVAL_PERSON_ORGANIZATION(#70,#25,#19);
#17=APPROVAL_PERSON_ORGANIZATION(#71,#26,#20);
#18=APPROVAL_ROLE('approver');
#19=APPROVAL_ROLE('approver');
#20=APPROVAL_ROLE('approver');
#21=APPROVAL_DATE_TIME(#39,#24);
#22=APPROVAL_DATE_TIME(#40,#25);
#23=APPROVAL_DATE_TIME(#41,#26);
#24=APPROVAL(#27,' ');
#25=APPROVAL(#28,' ');
#26=APPROVAL(#29,' ');
#27=APPROVAL_STATUS('not_yet_approved');
#28=APPROVAL_STATUS('not_yet_approved');
#29=APPROVAL_STATUS('not_yet_approved');
#30=CC_DESIGN_SECURITY_CLASSIFICATION(#31,(#84));
#31=SECURITY_CLASSIFICATION(' ',' ',#32);
#32=SECURITY_CLASSIFICATION_LEVEL('confidential');
#33=CC_DESIGN_DATE_AND_TIME_ASSIGNMENT(#37,#35,(#82));
#34=CC_DESIGN_DATE_AND_TIME_ASSIGNMENT(#38,#36,(#31));
#35=DATE_TIME_ROLE('creation_date');
#36=DATE_TIME_ROLE('classification_date');
#37=DATE_AND_TIME(#52,#42);
#38=DATE_AND_TIME(#53,#43);
#39=DATE_AND_TIME(#54,#44);
#40=DATE_AND_TIME(#55,#45);
#41=DATE_AND_TIME(#56,#46);
#42=LOCAL_TIME(0,0,0.,#47);
#43=LOCAL_TIME(0,0,0.,#48);
#44=LOCAL_TIME(0,0,0.,#49);
#45=LOCAL_TIME(0,0,0.,#50);
#46=LOCAL_TIME(0,0,0.,#51);
#47=COORDINATED_UNIVERSAL_TIME_OFFSET(0,0,.BEHIND.);
#48=COORDINATED_UNIVERSAL_TIME_OFFSET(0,0,.BEHIND.);
#49=COORDINATED_UNIVERSAL_TIME_OFFSET(0,0,.BEHIND.);
#50=COORDINATED_UNIVERSAL_TIME_OFFSET(0,0,.BEHIND.);
#51=COORDINATED_UNIVERSAL_TIME_OFFSET(0,0,.BEHIND.);
#52=CALENDAR_DATE(0,1,1);
#53=CALENDAR_DATE(0,1,1);
#54=CALENDAR_DATE(0,1,1);
#55=CALENDAR_DATE(0,1,1);
#56=CALENDAR_DATE(0,1,1);
#57=CC_DESIGN_PERSON_AND_ORGANIZATION_ASSIGNMENT(#65,#61,(#82,#84));
#58=CC_DESIGN_PERSON_AND_ORGANIZATION_ASSIGNMENT(#66,#62,(#86));
#59=CC_DESIGN_PERSON_AND_ORGANIZATION_ASSIGNMENT(#67,#63,(#84));
#60=CC_DESIGN_PERSON_AND_ORGANIZATION_ASSIGNMENT(#68,#64,(#31));
#61=PERSON_AND_ORGANIZATION_ROLE('creator');
#62=PERSON_AND_ORGANIZATION_ROLE('design_owner');
#63=PERSON_AND_ORGANIZATION_ROLE('design_supplier');
#64=PERSON_AND_ORGANIZATION_ROLE('classification_officer');
#65=PERSON_AND_ORGANIZATION(#79,#72);
#66=PERSON_AND_ORGANIZATION(#79,#73);
#67=PERSON_AND_ORGANIZATION(#79,#74);
#68=PERSON_AND_ORGANIZATION(#79,#75);
#69=PERSON_AND_ORGANIZATION(#79,#76);
#70=PERSON_AND_ORGANIZATION(#79,#77);
#71=PERSON_AND_ORGANIZATION(#79,#78);
#72=ORGANIZATION(' ',' ',' ');
#73=ORGANIZATION(' ',' ',' ');
#74=ORGANIZATION(' ',' ',' ');
#75=ORGANIZATION(' ',' ',' ');
#76=ORGANIZATION(' ',' ',' ');
#77=ORGANIZATION(' ',' ',' ');
#78=ORGANIZATION(' ',' ',' ');
#79=PERSON(' ',' ',' ',(' '),$,$);
#80=SHAPE_DEFINITION_REPRESENTATION(#81,#94);
#81=PRODUCT_DEFINITION_SHAPE('','',#82);
#82=PRODUCT_DEFINITION(' ','',#84,#83);
#83=DESIGN_CONTEXT('',#93,'design');
#84=PRODUCT_DEFINITION_FORMATION_WITH_SPECIFIED_SOURCE(' ',' ',#86,.NOT_KNOWN.);
#85=PRODUCT_RELATED_PRODUCT_CATEGORY('detail','',(#86));
#86=PRODUCT('fang57B4my41','fang57B4my41',' ',(#91));
#87=PRODUCT_CATEGORY_RELATIONSHIP(' ',' ',#89,#90);
#88=PRODUCT_CATEGORY_RELATIONSHIP('','',#90,#85);
#89=PRODUCT_CATEGORY('part',' ');
#90=PRODUCT_CATEGORY(' ','');
#91=MECHANICAL_CONTEXT(' ',#93,'mechanical');
#92=APPLICATION_PROTOCOL_DEFINITION('international standard',
'config_control_design',1994,#93);
#93=APPLICATION_CONTEXT(
'configuration controlled 3D designs of mechanical parts and assemblies');
#94=SHAPE_REPRESENTATION('fang57B4my41-None',(#260),#473);
#95=MANIFOLD_SOLID_BREP('-1',#96);
#96=CLOSED_SHELL('',(#129,#130,#131,#132,#133,#134,#135,#136,#137,#138,#139,
#140,#141));
#97=PLANE('',#277);
#98=PLANE('',#278);
#99=PLANE('',#279);
#100=PLANE('',#280);
#101=PLANE('',#281);
#102=PLANE('',#282);
#103=(
BOUNDED_SURFACE()
B_SPLINE_SURFACE(3,3,((#402,#403,#404,#405),(#406,#407,#408,#409),(#410,
#411,#412,#413),(#414,#415,#416,#417)),.UNSPECIFIED.,.F.,.F.,.F.)
B_SPLINE_SURFACE_WITH_KNOTS((4,4),(4,4),(0.,1.),(0.,1.),.UNSPECIFIED.)
GEOMETRIC_REPRESENTATION_ITEM()
RATIONAL_B_SPLINE_SURFACE(((1.,0.506705947296241,0.506705947296241,1.),(0.796271753739841,
0.403475633283986,0.403475633283986,0.796271753739841),(0.796271753739841,
0.403475633283986,0.403475633283986,0.796271753739841),(1.,0.506705947296241,
0.506705947296241,1.)))
REPRESENTATION_ITEM('')
SURFACE()
);
#104=(
BOUNDED_SURFACE()
B_SPLINE_SURFACE(3,3,((#452,#453,#454,#455),(#456,#457,#458,#459),(#460,
#461,#462,#463),(#464,#465,#466,#467)),.UNSPECIFIED.,.F.,.F.,.F.)
B_SPLINE_SURFACE_WITH_KNOTS((4,4),(4,4),(0.,1.),(0.,1.),.UNSPECIFIED.)
GEOMETRIC_REPRESENTATION_ITEM()
RATIONAL_B_SPLINE_SURFACE(((1.,0.506705947296241,0.506705947296241,1.),(0.796271753739844,
0.403475633283987,0.403475633283987,0.796271753739844),(0.796271753739844,
0.403475633283987,0.403475633283987,0.796271753739844),(1.,0.506705947296241,
0.506705947296241,1.)))
REPRESENTATION_ITEM('')
SURFACE()
);
#105=FACE_OUTER_BOUND('',#167,.T.);
#106=FACE_OUTER_BOUND('',#168,.T.);
#107=FACE_OUTER_BOUND('',#173,.T.);
#108=FACE_OUTER_BOUND('',#174,.T.);
#109=FACE_OUTER_BOUND('',#175,.T.);
#110=FACE_OUTER_BOUND('',#176,.T.);
#111=B_SPLINE_CURVE_WITH_KNOTS('',3,(#371,#372,#373,#374,#375,#376,#377,
#378,#379,#380,#381,#382,#383,#384,#385,#386,#387,#388,#389,#390,#391,#392,
#393,#394,#395,#396,#397,#398,#399,#400,#401),.UNSPECIFIED.,.F.,.F.,(4,3,
3,3,3,3,3,3,3,3,4),(0.,0.0880246526034084,0.176019457667605,0.264477380315317,
0.354883978192723,0.543790866007795,0.656849894155154,0.752680831053853,
0.848860584088464,0.939656740786478,1.),.UNSPECIFIED.);
#112=B_SPLINE_CURVE_WITH_KNOTS('',3,(#421,#422,#423,#424,#425,#426,#427,
#428,#429,#430,#431,#432,#433,#434,#435,#436,#437,#438,#439,#440,#441,#442,
#443,#444,#445,#446,#447,#448,#449,#450,#451),.UNSPECIFIED.,.F.,.F.,(4,3,
3,3,3,3,3,3,3,3,4),(0.,0.088024652603409,0.176019457667605,0.264477380315317,
0.354883978192721,0.543790866007778,0.656849894155147,0.752680831053845,
0.848860584088456,0.939656740786469,1.),.UNSPECIFIED.);
#113=CYLINDRICAL_SURFACE('',#272,2.);
#114=CYLINDRICAL_SURFACE('',#274,1.2);
#115=CYLINDRICAL_SURFACE('',#276,1.5);
#116=LINE('',#351,#122);
#117=LINE('',#355,#123);
#118=LINE('',#359,#124);
#119=LINE('',#363,#125);
#120=LINE('',#468,#126);
#121=LINE('',#470,#127);
#122=VECTOR('',#301,1.);
#123=VECTOR('',#304,1.);
#124=VECTOR('',#307,1.);
#125=VECTOR('',#310,1.);
#126=VECTOR('',#327,1.);
#127=VECTOR('',#330,1.);
#128=TOROIDAL_SURFACE('',#266,1.5,0.3);
#129=ADVANCED_FACE('',(#143,#144),#142,.T.);
#130=ADVANCED_FACE('',(#145,#146),#128,.F.);
#131=ADVANCED_FACE('',(#147,#148),#113,.T.);
#132=ADVANCED_FACE('',(#149,#150),#114,.T.);
#133=ADVANCED_FACE('',(#151,#152),#115,.T.);
#134=ADVANCED_FACE('',(#105),#103,.T.);
#135=ADVANCED_FACE('',(#106),#97,.T.);
#136=ADVANCED_FACE('',(#153,#154),#98,.T.);
#137=ADVANCED_FACE('',(#155,#156),#99,.T.);
#138=ADVANCED_FACE('',(#107),#104,.T.);
#139=ADVANCED_FACE('',(#108),#100,.F.);
#140=ADVANCED_FACE('',(#109),#101,.F.);
#141=ADVANCED_FACE('',(#110),#102,.T.);
#142=CONICAL_SURFACE('',#263,1.,44.9999999999997);
#143=FACE_BOUND('',#157,.T.);
#144=FACE_BOUND('',#158,.T.);
#145=FACE_BOUND('',#159,.T.);
#146=FACE_BOUND('',#160,.T.);
#147=FACE_BOUND('',#161,.T.);
#148=FACE_BOUND('',#162,.T.);
#149=FACE_BOUND('',#163,.T.);
#150=FACE_BOUND('',#164,.T.);
#151=FACE_BOUND('',#165,.T.);
#152=FACE_BOUND('',#166,.T.);
#153=FACE_BOUND('',#169,.T.);
#154=FACE_BOUND('',#170,.T.);
#155=FACE_BOUND('',#171,.T.);
#156=FACE_BOUND('',#172,.T.);
#157=EDGE_LOOP('',(#177));
#158=EDGE_LOOP('',(#178));
#159=EDGE_LOOP('',(#179));
#160=EDGE_LOOP('',(#180));
#161=EDGE_LOOP('',(#181));
#162=EDGE_LOOP('',(#182,#183,#184,#185,#186,#187,#188,#189));
#163=EDGE_LOOP('',(#190));
#164=EDGE_LOOP('',(#191));
#165=EDGE_LOOP('',(#192));
#166=EDGE_LOOP('',(#193));
#167=EDGE_LOOP('',(#194,#195));
#168=EDGE_LOOP('',(#196));
#169=EDGE_LOOP('',(#197));
#170=EDGE_LOOP('',(#198));
#171=EDGE_LOOP('',(#199));
#172=EDGE_LOOP('',(#200));
#173=EDGE_LOOP('',(#201,#202));
#174=EDGE_LOOP('',(#203,#204,#205,#206));
#175=EDGE_LOOP('',(#207,#208,#209,#210));
#176=EDGE_LOOP('',(#211,#212,#213,#214));
#177=ORIENTED_EDGE('',*,*,#230,.F.);
#178=ORIENTED_EDGE('',*,*,#231,.F.);
#179=ORIENTED_EDGE('',*,*,#232,.F.);
#180=ORIENTED_EDGE('',*,*,#233,.F.);
#181=ORIENTED_EDGE('',*,*,#234,.F.);
#182=ORIENTED_EDGE('',*,*,#235,.T.);
#183=ORIENTED_EDGE('',*,*,#236,.F.);
#184=ORIENTED_EDGE('',*,*,#237,.T.);
#185=ORIENTED_EDGE('',*,*,#238,.F.);
#186=ORIENTED_EDGE('',*,*,#239,.T.);
#187=ORIENTED_EDGE('',*,*,#240,.F.);
#188=ORIENTED_EDGE('',*,*,#241,.T.);
#189=ORIENTED_EDGE('',*,*,#242,.F.);
#190=ORIENTED_EDGE('',*,*,#243,.F.);
#191=ORIENTED_EDGE('',*,*,#233,.T.);
#192=ORIENTED_EDGE('',*,*,#230,.T.);
#193=ORIENTED_EDGE('',*,*,#244,.T.);
#194=ORIENTED_EDGE('',*,*,#245,.F.);
#195=ORIENTED_EDGE('',*,*,#241,.F.);
#196=ORIENTED_EDGE('',*,*,#231,.T.);
#197=ORIENTED_EDGE('',*,*,#243,.T.);
#198=ORIENTED_EDGE('',*,*,#244,.F.);
#199=ORIENTED_EDGE('',*,*,#232,.T.);
#200=ORIENTED_EDGE('',*,*,#234,.T.);
#201=ORIENTED_EDGE('',*,*,#246,.F.);
#202=ORIENTED_EDGE('',*,*,#237,.F.);
#203=ORIENTED_EDGE('',*,*,#242,.T.);
#204=ORIENTED_EDGE('',*,*,#245,.T.);
#205=ORIENTED_EDGE('',*,*,#240,.T.);
#206=ORIENTED_EDGE('',*,*,#247,.F.);
#207=ORIENTED_EDGE('',*,*,#238,.T.);
#208=ORIENTED_EDGE('',*,*,#246,.T.);
#209=ORIENTED_EDGE('',*,*,#236,.T.);
#210=ORIENTED_EDGE('',*,*,#248,.F.);
#211=ORIENTED_EDGE('',*,*,#248,.T.);
#212=ORIENTED_EDGE('',*,*,#235,.F.);
#213=ORIENTED_EDGE('',*,*,#247,.T.);
#214=ORIENTED_EDGE('',*,*,#239,.F.);
#215=VERTEX_POINT('',#337);
#216=VERTEX_POINT('',#339);
#217=VERTEX_POINT('',#342);
#218=VERTEX_POINT('',#344);
#219=VERTEX_POINT('',#347);
#220=VERTEX_POINT('',#349);
#221=VERTEX_POINT('',#350);
#222=VERTEX_POINT('',#352);
#223=VERTEX_POINT('',#354);
#224=VERTEX_POINT('',#356);
#225=VERTEX_POINT('',#358);
#226=VERTEX_POINT('',#360);
#227=VERTEX_POINT('',#362);
#228=VERTEX_POINT('',#366);
#229=VERTEX_POINT('',#369);
#230=EDGE_CURVE('',#215,#215,#249,.T.);
#231=EDGE_CURVE('',#216,#216,#250,.T.);
#232=EDGE_CURVE('',#217,#217,#251,.T.);
#233=EDGE_CURVE('',#218,#218,#252,.T.);
#234=EDGE_CURVE('',#219,#219,#253,.T.);
#235=EDGE_CURVE('',#220,#221,#254,.T.);
#236=EDGE_CURVE('',#222,#221,#116,.T.);
#237=EDGE_CURVE('',#222,#223,#255,.T.);
#238=EDGE_CURVE('',#224,#223,#117,.T.);
#239=EDGE_CURVE('',#224,#225,#256,.T.);
#240=EDGE_CURVE('',#226,#225,#118,.T.);
#241=EDGE_CURVE('',#226,#227,#257,.T.);
#242=EDGE_CURVE('',#220,#227,#119,.T.);
#243=EDGE_CURVE('',#228,#228,#258,.T.);
#244=EDGE_CURVE('',#229,#229,#259,.T.);
#245=EDGE_CURVE('',#227,#226,#111,.T.);
#246=EDGE_CURVE('',#223,#222,#112,.T.);
#247=EDGE_CURVE('',#220,#225,#120,.T.);
#248=EDGE_CURVE('',#224,#221,#121,.T.);
#249=CIRCLE('',#261,1.5);
#250=CIRCLE('',#262,1.);
#251=CIRCLE('',#264,1.5);
#252=CIRCLE('',#265,1.2);
#253=CIRCLE('',#267,2.);
#254=CIRCLE('',#268,2.);
#255=CIRCLE('',#269,2.);
#256=CIRCLE('',#270,2.);
#257=CIRCLE('',#271,2.);
#258=CIRCLE('',#273,1.2);
#259=CIRCLE('',#275,1.5);
#260=AXIS2_PLACEMENT_3D('',#335,#283,#284);
#261=AXIS2_PLACEMENT_3D('',#336,#285,#286);
#262=AXIS2_PLACEMENT_3D('',#338,#287,#288);
#263=AXIS2_PLACEMENT_3D('',#340,#289,#290);
#264=AXIS2_PLACEMENT_3D('',#341,#291,#292);
#265=AXIS2_PLACEMENT_3D('',#343,#293,#294);
#266=AXIS2_PLACEMENT_3D('',#345,#295,#296);
#267=AXIS2_PLACEMENT_3D('',#346,#297,#298);
#268=AXIS2_PLACEMENT_3D('',#348,#299,#300);
#269=AXIS2_PLACEMENT_3D('',#353,#302,#303);
#270=AXIS2_PLACEMENT_3D('',#357,#305,#306);
#271=AXIS2_PLACEMENT_3D('',#361,#308,#309);
#272=AXIS2_PLACEMENT_3D('',#364,#311,#312);
#273=AXIS2_PLACEMENT_3D('',#365,#313,#314);
#274=AXIS2_PLACEMENT_3D('',#367,#315,#316);
#275=AXIS2_PLACEMENT_3D('',#368,#317,#318);
#276=AXIS2_PLACEMENT_3D('',#370,#319,#320);
#277=AXIS2_PLACEMENT_3D('',#418,#321,#322);
#278=AXIS2_PLACEMENT_3D('',#419,#323,#324);
#279=AXIS2_PLACEMENT_3D('',#420,#325,#326);
#280=AXIS2_PLACEMENT_3D('',#469,#328,#329);
#281=AXIS2_PLACEMENT_3D('',#471,#331,#332);
#282=AXIS2_PLACEMENT_3D('',#472,#333,#334);
#283=DIRECTION('',(0.,0.,1.));
#284=DIRECTION('',(1.,0.,0.));
#285=DIRECTION('',(0.,1.,0.));
#286=DIRECTION('',(0.,0.,-1.));
#287=DIRECTION('',(0.,-1.,0.));
#288=DIRECTION('',(0.,0.,-1.));
#289=DIRECTION('',(0.,1.,0.));
#290=DIRECTION('',(0.,0.,-1.));
#291=DIRECTION('',(0.,1.,0.));
#292=DIRECTION('',(0.,0.,-1.));
#293=DIRECTION('',(0.,-1.,0.));
#294=DIRECTION('',(0.,0.,-1.));
#295=DIRECTION('',(0.,-1.,0.));
#296=DIRECTION('',(0.,0.,1.));
#297=DIRECTION('',(0.,-1.,0.));
#298=DIRECTION('',(0.,0.,-1.));
#299=DIRECTION('',(0.,-1.,0.));
#300=DIRECTION('',(-8.88178419700125E-016,0.,1.));
#301=DIRECTION('',(0.,-1.,0.));
#302=DIRECTION('',(0.,-1.,0.));
#303=DIRECTION('',(0.,0.,1.));
#304=DIRECTION('',(0.,1.,0.));
#305=DIRECTION('',(0.,-1.,0.));
#306=DIRECTION('',(0.,0.,1.));
#307=DIRECTION('',(0.,-1.,0.));
#308=DIRECTION('',(0.,-1.,0.));
#309=DIRECTION('',(0.,0.,1.));
#310=DIRECTION('',(0.,1.,0.));
#311=DIRECTION('',(0.,-1.,0.));
#312=DIRECTION('',(0.,0.,1.));
#313=DIRECTION('',(0.,-1.,0.));
#314=DIRECTION('',(0.,0.,-1.));
#315=DIRECTION('',(0.,-1.,0.));
#316=DIRECTION('',(0.,0.,1.));
#317=DIRECTION('',(0.,-1.,0.));
#318=DIRECTION('',(0.,0.,-1.));
#319=DIRECTION('',(0.,-1.,0.));
#320=DIRECTION('',(0.,0.,1.));
#321=DIRECTION('',(0.,-1.,0.));
#322=DIRECTION('',(0.,0.,1.));
#323=DIRECTION('',(0.,1.,0.));
#324=DIRECTION('',(0.,0.,-1.));
#325=DIRECTION('',(0.,-1.,0.));
#326=DIRECTION('',(0.,0.,1.));
#327=DIRECTION('',(-1.43424930530637E-016,0.,-1.));
#328=DIRECTION('',(1.,0.,-1.43424930530637E-016));
#329=DIRECTION('',(1.43439947419832E-016,0.,1.));
#330=DIRECTION('',(9.56166203537581E-017,0.,1.));
#331=DIRECTION('',(-1.,0.,9.56166203537581E-017));
#332=DIRECTION('',(-9.56266316132215E-017,0.,-1.));
#333=DIRECTION('',(0.,1.,0.));
#334=DIRECTION('',(0.,0.,-1.));
#335=CARTESIAN_POINT('',(0.,0.,0.));
#336=CARTESIAN_POINT('',(0.,0.500000000000001,0.));
#337=CARTESIAN_POINT('',(0.,0.500000000000001,-1.5));
#338=CARTESIAN_POINT('',(0.,0.,0.));
#339=CARTESIAN_POINT('',(0.,0.,-1.));
#340=CARTESIAN_POINT('',(0.,0.,0.));
#341=CARTESIAN_POINT('',(0.,9.2,0.));
#342=CARTESIAN_POINT('',(0.,9.2,-1.5));
#343=CARTESIAN_POINT('',(0.,8.9,0.));
#344=CARTESIAN_POINT('',(0.,8.9,-1.2));
#345=CARTESIAN_POINT('',(0.,8.9,0.));
#346=CARTESIAN_POINT('',(0.,9.2,0.));
#347=CARTESIAN_POINT('',(0.,9.2,-2.));
#348=CARTESIAN_POINT('',(0.,22.8,0.));
#349=CARTESIAN_POINT('',(0.550000000000001,22.8,1.92288845230294));
#350=CARTESIAN_POINT('',(-0.55,22.8,1.92288845230294));
#351=CARTESIAN_POINT('',(-0.55,0.,1.92288845230294));
#352=CARTESIAN_POINT('',(-0.55,23.3,1.92288845230294));
#353=CARTESIAN_POINT('',(0.,23.3,0.));
#354=CARTESIAN_POINT('',(-0.55,23.3,-1.92288845230294));
#355=CARTESIAN_POINT('',(-0.55,0.,-1.92288845230294));
#356=CARTESIAN_POINT('',(-0.55,22.8,-1.92288845230294));
#357=CARTESIAN_POINT('',(0.,22.8,0.));
#358=CARTESIAN_POINT('',(0.55,22.8,-1.92288845230294));
#359=CARTESIAN_POINT('',(0.55,0.,-1.92288845230294));
#360=CARTESIAN_POINT('',(0.55,23.3,-1.92288845230294));
#361=CARTESIAN_POINT('',(0.,23.3,0.));
#362=CARTESIAN_POINT('',(0.550000000000001,23.3,1.92288845230294));
#363=CARTESIAN_POINT('',(0.550000000000001,0.,1.92288845230294));
#364=CARTESIAN_POINT('',(0.,0.,0.));
#365=CARTESIAN_POINT('',(0.,5.,0.));
#366=CARTESIAN_POINT('',(0.,5.,-1.2));
#367=CARTESIAN_POINT('',(0.,0.,0.));
#368=CARTESIAN_POINT('',(0.,5.,0.));
#369=CARTESIAN_POINT('',(0.,5.,-1.5));
#370=CARTESIAN_POINT('',(0.,0.,0.));
#371=CARTESIAN_POINT('',(0.550000000000001,23.3,1.92288845230294));
#372=CARTESIAN_POINT('',(0.550000000000001,23.4619063063248,1.92288845230294));
#373=CARTESIAN_POINT('',(0.55,23.6260459894314,1.89483195535553));
#374=CARTESIAN_POINT('',(0.55,23.7787901072267,1.84113943719252));
#375=CARTESIAN_POINT('',(0.55,23.9315058193669,1.78745690416786));
#376=CARTESIAN_POINT('',(0.55,24.077007154375,1.70668912403689));
#377=CARTESIAN_POINT('',(0.55,24.2035541121977,1.60574473066981));
#378=CARTESIAN_POINT('',(0.55,24.3308019056236,1.50424129245464));
#379=CARTESIAN_POINT('',(0.55,24.4422631851242,1.37964771065588));
#380=CARTESIAN_POINT('',(0.55,24.5298590745639,1.24245474780965));
#381=CARTESIAN_POINT('',(0.55,24.6194461183684,1.10214323261412));
#382=CARTESIAN_POINT('',(0.55,24.6861610694225,0.945224994232247));
#383=CARTESIAN_POINT('',(0.55,24.728416412956,0.784204356868693));
#384=CARTESIAN_POINT('',(0.55,24.8161183523159,0.450002312988553));
#385=CARTESIAN_POINT('',(0.55,24.8063323907552,0.0952552716086349));
#386=CARTESIAN_POINT('',(0.55,24.7963762966477,-0.250119180966071));
#387=CARTESIAN_POINT('',(0.55,24.7904324984938,-0.456308075065079));
#388=CARTESIAN_POINT('',(0.55,24.7676585953587,-0.665471599865748));
#389=CARTESIAN_POINT('',(0.55,24.7059548862904,-0.862301071930993));
#390=CARTESIAN_POINT('',(0.55,24.6537133926364,-1.0289468987552));
#391=CARTESIAN_POINT('',(0.55,24.5736867136557,-1.18964640330477));
#392=CARTESIAN_POINT('',(0.55,24.4696212142741,-1.32989752485313));
#393=CARTESIAN_POINT('',(0.55,24.3653119872257,-1.47047712297463));
#394=CARTESIAN_POINT('',(0.55,24.2339490220383,-1.59444946293983));
#395=CARTESIAN_POINT('',(0.55,24.0870575376663,-1.68966464069234));
#396=CARTESIAN_POINT('',(0.55,23.9481949671074,-1.77967547008432));
#397=CARTESIAN_POINT('',(0.55,23.7915351046094,-1.8466308300675));
#398=CARTESIAN_POINT('',(0.55,23.6304498510365,-1.88452943151168));
#399=CARTESIAN_POINT('',(0.55,23.5225074470896,-1.90992509036545));
#400=CARTESIAN_POINT('',(0.55,23.4108895940044,-1.92288845230294));
#401=CARTESIAN_POINT('',(0.55,23.3,-1.92288845230294));
#402=CARTESIAN_POINT('',(0.116143841250027,24.7990493878229,0.431239392164824));
#403=CARTESIAN_POINT('',(0.663998249431969,24.7990493878229,0.283688132775954));
#404=CARTESIAN_POINT('',(0.663998249431969,24.7990493878229,-0.283688132775953));
#405=CARTESIAN_POINT('',(0.116143841250027,24.7990493878229,-0.431239392164824));
#406=CARTESIAN_POINT('',(0.351007234133957,24.8312171706704,1.30328172948515));
#407=CARTESIAN_POINT('',(2.00672017125016,24.8312171706704,0.857355721754995));
#408=CARTESIAN_POINT('',(2.00672017125016,24.8312171706704,-0.857355721754993));
#409=CARTESIAN_POINT('',(0.351007234133958,24.8312171706704,-1.30328172948515));
#410=CARTESIAN_POINT('',(0.520117841888725,24.2036887836249,1.93118549874139));
#411=CARTESIAN_POINT('',(2.97353120747043,24.2036887836249,1.27041828306016));
#412=CARTESIAN_POINT('',(2.97353120747044,24.2036887836249,-1.27041828306016));
#413=CARTESIAN_POINT('',(0.520117841888726,24.2036887836249,-1.93118549874139));
#414=CARTESIAN_POINT('',(0.520117841888724,23.3,1.93118549874139));
#415=CARTESIAN_POINT('',(2.97353120747043,23.3,1.27041828306016));
#416=CARTESIAN_POINT('',(2.97353120747043,23.3,-1.27041828306016));
#417=CARTESIAN_POINT('',(0.520117841888725,23.3,-1.93118549874139));
#418=CARTESIAN_POINT('',(0.,0.,0.));
#419=CARTESIAN_POINT('',(1.5,5.,0.));
#420=CARTESIAN_POINT('',(1.2,9.2,0.));
#421=CARTESIAN_POINT('',(-0.55,23.3,-1.92288845230294));
#422=CARTESIAN_POINT('',(-0.55,23.4619063063248,-1.92288845230294));
#423=CARTESIAN_POINT('',(-0.55,23.6260459894314,-1.89483195535553));
#424=CARTESIAN_POINT('',(-0.55,23.7787901072267,-1.84113943719252));
#425=CARTESIAN_POINT('',(-0.55,23.9315058193669,-1.78745690416787));
#426=CARTESIAN_POINT('',(-0.55,24.077007154375,-1.7066891240369));
#427=CARTESIAN_POINT('',(-0.55,24.2035541121977,-1.60574473066982));
#428=CARTESIAN_POINT('',(-0.55,24.3308019056236,-1.50424129245466));
#429=CARTESIAN_POINT('',(-0.55,24.4422631851242,-1.3796477106559));
#430=CARTESIAN_POINT('',(-0.55,24.5298590745638,-1.24245474780966));
#431=CARTESIAN_POINT('',(-0.55,24.6194461183684,-1.10214323261414));
#432=CARTESIAN_POINT('',(-0.55,24.6861610694225,-0.945224994232267));
#433=CARTESIAN_POINT('',(-0.55,24.728416412956,-0.784204356868715));
#434=CARTESIAN_POINT('',(-0.55,24.8161183523159,-0.450002312988602));
#435=CARTESIAN_POINT('',(-0.55,24.8063323907552,-0.0952552716087107));
#436=CARTESIAN_POINT('',(-0.55,24.7963762966477,0.250119180965969));
#437=CARTESIAN_POINT('',(-0.55,24.7904324984939,0.456308075064994));
#438=CARTESIAN_POINT('',(-0.55,24.7676585953587,0.665471599865681));
#439=CARTESIAN_POINT('',(-0.55,24.7059548862904,0.862301071930944));
#440=CARTESIAN_POINT('',(-0.55,24.6537133926365,1.02894689875515));
#441=CARTESIAN_POINT('',(-0.55,24.5736867136558,1.18964640330472));
#442=CARTESIAN_POINT('',(-0.55,24.4696212142742,1.32989752485309));
#443=CARTESIAN_POINT('',(-0.55,24.3653119872258,1.47047712297459));
#444=CARTESIAN_POINT('',(-0.55,24.2339490220383,1.5944494629398));
#445=CARTESIAN_POINT('',(-0.55,24.0870575376664,1.68966464069232));
#446=CARTESIAN_POINT('',(-0.55,23.9481949671075,1.7796754700843));
#447=CARTESIAN_POINT('',(-0.55,23.7915351046094,1.84663083006749));
#448=CARTESIAN_POINT('',(-0.55,23.6304498510365,1.88452943151167));
#449=CARTESIAN_POINT('',(-0.55,23.5225074470896,1.90992509036545));
#450=CARTESIAN_POINT('',(-0.55,23.4108895940044,1.92288845230294));
#451=CARTESIAN_POINT('',(-0.55,23.3,1.92288845230294));
#452=CARTESIAN_POINT('',(-0.116143841250031,24.7990493878229,-0.431239392164841));
#453=CARTESIAN_POINT('',(-0.663998249431995,24.7990493878229,-0.283688132775965));
#454=CARTESIAN_POINT('',(-0.663998249431995,24.7990493878229,0.283688132775965));
#455=CARTESIAN_POINT('',(-0.116143841250031,24.7990493878229,0.431239392164841));
#456=CARTESIAN_POINT('',(-0.35100723413396,24.8312171706704,-1.30328172948516));
#457=CARTESIAN_POINT('',(-2.00672017125017,24.8312171706704,-0.857355721755001));
#458=CARTESIAN_POINT('',(-2.00672017125017,24.8312171706704,0.857355721755001));
#459=CARTESIAN_POINT('',(-0.35100723413396,24.8312171706704,1.30328172948516));
#460=CARTESIAN_POINT('',(-0.520117841888725,24.2036887836249,-1.93118549874139));
#461=CARTESIAN_POINT('',(-2.97353120747044,24.2036887836249,-1.27041828306016));
#462=CARTESIAN_POINT('',(-2.97353120747044,24.2036887836249,1.27041828306016));
#463=CARTESIAN_POINT('',(-0.520117841888724,24.2036887836249,1.93118549874139));
#464=CARTESIAN_POINT('',(-0.520117841888724,23.3,-1.93118549874139));
#465=CARTESIAN_POINT('',(-2.97353120747043,23.3,-1.27041828306016));
#466=CARTESIAN_POINT('',(-2.97353120747043,23.3,1.27041828306016));
#467=CARTESIAN_POINT('',(-0.520117841888724,23.3,1.93118549874139));
#468=CARTESIAN_POINT('',(0.55,22.8,-2.26781111583786));
#469=CARTESIAN_POINT('',(0.55,22.8,-2.26781111583786));
#470=CARTESIAN_POINT('',(-0.55,22.8,-2.26781111583786));
#471=CARTESIAN_POINT('',(-0.55,22.8,-2.26781111583786));
#472=CARTESIAN_POINT('',(0.,22.8,0.));
#473=(
GEOMETRIC_REPRESENTATION_CONTEXT(3)
GLOBAL_UNCERTAINTY_ASSIGNED_CONTEXT((#474))
GLOBAL_UNIT_ASSIGNED_CONTEXT((#480,#476,#475))
REPRESENTATION_CONTEXT('DAOXIANGXIAO','TOP_LEVEL_ASSEMBLY_PART')
);
#474=UNCERTAINTY_MEASURE_WITH_UNIT(LENGTH_MEASURE(0.0508),#480,
'DISTANCE_ACCURACY_VALUE','Maximum Tolerance applied to model');
#475=(
NAMED_UNIT(*)
SI_UNIT($,.STERADIAN.)
SOLID_ANGLE_UNIT()
);
#476=(
CONVERSION_BASED_UNIT('DEGREE',#478)
NAMED_UNIT(#477)
PLANE_ANGLE_UNIT()
);
#477=DIMENSIONAL_EXPONENTS(0.,0.,0.,0.,0.,0.,0.);
#478=PLANE_ANGLE_MEASURE_WITH_UNIT(PLANE_ANGLE_MEASURE(0.0174532925),#479);
#479=(
NAMED_UNIT(*)
PLANE_ANGLE_UNIT()
SI_UNIT($,.RADIAN.)
);
#480=(
LENGTH_UNIT()
NAMED_UNIT(*)
SI_UNIT(.MILLI.,.METRE.)
);
ENDSEC;
END-ISO-10303-21;
