ISO-10303-21;
HEADER;
/* Generated by software containing ST-Developer
 * from STEP Tools, Inc. (www.steptools.com) 
 */
/* OPTION: using custom schema-name function */

FILE_DESCRIPTION(
/* description */ (''),
/* implementation_level */ '2;1');

FILE_NAME(
/* name */ 'SGM-0.33.stp',
/* time_stamp */ '2023-07-31T14:08:38+08:00',
/* author */ (''),
/* organization */ (''),
/* preprocessor_version */ 'ST-DEVELOPER v11',
/* originating_system */ 'SIEMENS PLM Software NX 7.5',
/* authorisation */ '');

FILE_SCHEMA (('CONFIG_CONTROL_DESIGN'));
ENDSEC;

DATA;
#10=SHAPE_REPRESENTATION_RELATIONSHIP('None',
'relationship between fang57B4my39-None and fang57B4my39-None',#94,#11);
#11=ADVANCED_BREP_SHAPE_REPRESENTATION('fang57B4my39-None',(#95),#505);
#12=CC_DESIGN_APPROVAL(#24,(#82));
#13=CC_DESIGN_APPROVAL(#25,(#84));
#14=CC_DESIGN_APPROVAL(#26,(#31));
#15=APPROVAL_PERSON_ORGANIZATION(#69,#24,#18);
#16=APPROVAL_PERSON_ORGANIZATION(#70,#25,#19);
#17=APPROVAL_PERSON_ORGANIZATION(#71,#26,#20);
#18=APPROVAL_ROLE('approver');
#19=APPROVAL_ROLE('approver');
#20=APPROVAL_ROLE('approver');
#21=APPROVAL_DATE_TIME(#39,#24);
#22=APPROVAL_DATE_TIME(#40,#25);
#23=APPROVAL_DATE_TIME(#41,#26);
#24=APPROVAL(#27,' ');
#25=APPROVAL(#28,' ');
#26=APPROVAL(#29,' ');
#27=APPROVAL_STATUS('not_yet_approved');
#28=APPROVAL_STATUS('not_yet_approved');
#29=APPROVAL_STATUS('not_yet_approved');
#30=CC_DESIGN_SECURITY_CLASSIFICATION(#31,(#84));
#31=SECURITY_CLASSIFICATION(' ',' ',#32);
#32=SECURITY_CLASSIFICATION_LEVEL('confidential');
#33=CC_DESIGN_DATE_AND_TIME_ASSIGNMENT(#37,#35,(#82));
#34=CC_DESIGN_DATE_AND_TIME_ASSIGNMENT(#38,#36,(#31));
#35=DATE_TIME_ROLE('creation_date');
#36=DATE_TIME_ROLE('classification_date');
#37=DATE_AND_TIME(#52,#42);
#38=DATE_AND_TIME(#53,#43);
#39=DATE_AND_TIME(#54,#44);
#40=DATE_AND_TIME(#55,#45);
#41=DATE_AND_TIME(#56,#46);
#42=LOCAL_TIME(0,0,0.,#47);
#43=LOCAL_TIME(0,0,0.,#48);
#44=LOCAL_TIME(0,0,0.,#49);
#45=LOCAL_TIME(0,0,0.,#50);
#46=LOCAL_TIME(0,0,0.,#51);
#47=COORDINATED_UNIVERSAL_TIME_OFFSET(0,0,.BEHIND.);
#48=COORDINATED_UNIVERSAL_TIME_OFFSET(0,0,.BEHIND.);
#49=COORDINATED_UNIVERSAL_TIME_OFFSET(0,0,.BEHIND.);
#50=COORDINATED_UNIVERSAL_TIME_OFFSET(0,0,.BEHIND.);
#51=COORDINATED_UNIVERSAL_TIME_OFFSET(0,0,.BEHIND.);
#52=CALENDAR_DATE(0,1,1);
#53=CALENDAR_DATE(0,1,1);
#54=CALENDAR_DATE(0,1,1);
#55=CALENDAR_DATE(0,1,1);
#56=CALENDAR_DATE(0,1,1);
#57=CC_DESIGN_PERSON_AND_ORGANIZATION_ASSIGNMENT(#65,#61,(#82,#84));
#58=CC_DESIGN_PERSON_AND_ORGANIZATION_ASSIGNMENT(#66,#62,(#86));
#59=CC_DESIGN_PERSON_AND_ORGANIZATION_ASSIGNMENT(#67,#63,(#84));
#60=CC_DESIGN_PERSON_AND_ORGANIZATION_ASSIGNMENT(#68,#64,(#31));
#61=PERSON_AND_ORGANIZATION_ROLE('creator');
#62=PERSON_AND_ORGANIZATION_ROLE('design_owner');
#63=PERSON_AND_ORGANIZATION_ROLE('design_supplier');
#64=PERSON_AND_ORGANIZATION_ROLE('classification_officer');
#65=PERSON_AND_ORGANIZATION(#79,#72);
#66=PERSON_AND_ORGANIZATION(#79,#73);
#67=PERSON_AND_ORGANIZATION(#79,#74);
#68=PERSON_AND_ORGANIZATION(#79,#75);
#69=PERSON_AND_ORGANIZATION(#79,#76);
#70=PERSON_AND_ORGANIZATION(#79,#77);
#71=PERSON_AND_ORGANIZATION(#79,#78);
#72=ORGANIZATION(' ',' ',' ');
#73=ORGANIZATION(' ',' ',' ');
#74=ORGANIZATION(' ',' ',' ');
#75=ORGANIZATION(' ',' ',' ');
#76=ORGANIZATION(' ',' ',' ');
#77=ORGANIZATION(' ',' ',' ');
#78=ORGANIZATION(' ',' ',' ');
#79=PERSON(' ',' ',' ',(' '),$,$);
#80=SHAPE_DEFINITION_REPRESENTATION(#81,#94);
#81=PRODUCT_DEFINITION_SHAPE('','',#82);
#82=PRODUCT_DEFINITION(' ','',#84,#83);
#83=DESIGN_CONTEXT('',#93,'design');
#84=PRODUCT_DEFINITION_FORMATION_WITH_SPECIFIED_SOURCE(' ',' ',#86,.NOT_KNOWN.);
#85=PRODUCT_RELATED_PRODUCT_CATEGORY('detail','',(#86));
#86=PRODUCT('fang57B4my39','fang57B4my39',' ',(#91));
#87=PRODUCT_CATEGORY_RELATIONSHIP(' ',' ',#89,#90);
#88=PRODUCT_CATEGORY_RELATIONSHIP('','',#90,#85);
#89=PRODUCT_CATEGORY('part',' ');
#90=PRODUCT_CATEGORY(' ','');
#91=MECHANICAL_CONTEXT(' ',#93,'mechanical');
#92=APPLICATION_PROTOCOL_DEFINITION('international standard',
'config_control_design',1994,#93);
#93=APPLICATION_CONTEXT(
'configuration controlled 3D designs of mechanical parts and assemblies');
#94=SHAPE_REPRESENTATION('fang57B4my39-None',(#254),#505);
#95=MANIFOLD_SOLID_BREP('3',#96);
#96=CLOSED_SHELL('',(#111,#112,#113,#114,#115,#116,#117,#118,#119,#120,#121,
#122,#123,#124));
#97=PLANE('',#278);
#98=PLANE('',#279);
#99=PLANE('',#280);
#100=SPHERICAL_SURFACE('',#266,0.5);
#101=FACE_OUTER_BOUND('',#167,.T.);
#102=CYLINDRICAL_SURFACE('',#260,0.45);
#103=CYLINDRICAL_SURFACE('',#261,0.3);
#104=CYLINDRICAL_SURFACE('',#268,0.5);
#105=CYLINDRICAL_SURFACE('',#270,1.05);
#106=CYLINDRICAL_SURFACE('',#275,0.729999999999997);
#107=CYLINDRICAL_SURFACE('',#277,0.829999999999997);
#108=B_SPLINE_CURVE_WITH_KNOTS('',3,(#345,#346,#347,#348,#349,#350,#351,
#352,#353,#354,#355,#356,#357,#358,#359,#360,#361,#362,#363,#364,#365,#366,
#367,#368,#369,#370,#371,#372,#373,#374,#375,#376,#377,#378,#379,#380,#381,
#382,#383,#384,#385,#386,#387,#388,#389,#390,#391,#392,#393,#394,#395,#396,
#397,#398,#399,#400,#401,#402,#403,#404,#405,#406,#407,#408,#409,#410,#411),
 .UNSPECIFIED.,.T.,.F.,(1,3,3,3,3,3,3,3,3,3,3,3,3,3,3,3,3,3,3,3,3,3,3,3,
1),(-0.0495111461102676,0.,0.0464091699594636,0.0925401751771641,0.142624480639362,
0.200790016053049,0.242225484359868,0.250132015227881,0.295256374082462,
0.339855446512161,0.391484424115293,0.450825229107858,0.500419530791214,
0.546750885739092,0.592804542348562,0.642804870639584,0.700872878952139,
0.742238871734013,0.750132145592424,0.795180843699047,0.839705136137105,
0.891247546591957,0.950488853889732,1.,1.04640916995946),.UNSPECIFIED.);
#109=B_SPLINE_CURVE_WITH_KNOTS('',3,(#414,#415,#416,#417,#418,#419,#420,
#421,#422,#423,#424,#425,#426,#427,#428,#429,#430,#431,#432,#433,#434,#435,
#436,#437,#438,#439,#440,#441,#442,#443,#444,#445,#446,#447,#448,#449,#450,
#451,#452,#453,#454,#455,#456,#457,#458,#459,#460,#461,#462,#463,#464,#465,
#466,#467,#468,#469,#470,#471,#472,#473,#474),.UNSPECIFIED.,.T.,.F.,(1,3,
3,3,3,3,3,3,3,3,3,3,3,3,3,3,3,3,3,3,3,3,1),(-0.0391310177546612,0.,0.0514244199745074,
0.102724541057225,0.155900044305797,0.210996242773233,0.249997635667805,
0.301301493137932,0.352457842299913,0.405796534495749,0.460868136808746,
0.499998997676991,0.551423623827429,0.602723950587726,0.655899667032847,
0.710996086397475,0.749997635661151,0.80130169882388,0.852458253087056,0.90579715913377,
0.960868982245339,1.,1.05142441997451),.UNSPECIFIED.);
#110=VERTEX_LOOP('',#216);
#111=ADVANCED_FACE('',(#129,#130),#125,.F.);
#112=ADVANCED_FACE('',(#131,#132),#126,.F.);
#113=ADVANCED_FACE('',(#133,#134,#135),#102,.F.);
#114=ADVANCED_FACE('',(#136,#137),#103,.F.);
#115=ADVANCED_FACE('',(#138,#139),#127,.T.);
#116=ADVANCED_FACE('',(#101),#100,.T.);
#117=ADVANCED_FACE('',(#140,#141),#104,.T.);
#118=ADVANCED_FACE('',(#142,#143),#105,.T.);
#119=ADVANCED_FACE('',(#144,#145),#128,.T.);
#120=ADVANCED_FACE('',(#146,#147),#106,.T.);
#121=ADVANCED_FACE('',(#148,#149,#150),#107,.T.);
#122=ADVANCED_FACE('',(#151,#152),#97,.T.);
#123=ADVANCED_FACE('',(#153,#154),#98,.T.);
#124=ADVANCED_FACE('',(#155,#156),#99,.F.);
#125=CONICAL_SURFACE('',#257,0.45,45.0000000000002);
#126=CONICAL_SURFACE('',#259,0.45,59.9999999999997);
#127=CONICAL_SURFACE('',#264,0.950000000000004,33.6900675259797);
#128=CONICAL_SURFACE('',#273,0.829999999999997,10.304846468766);
#129=FACE_BOUND('',#157,.T.);
#130=FACE_BOUND('',#158,.T.);
#131=FACE_BOUND('',#159,.T.);
#132=FACE_BOUND('',#110,.T.);
#133=FACE_BOUND('',#160,.T.);
#134=FACE_BOUND('',#161,.T.);
#135=FACE_BOUND('',#162,.T.);
#136=FACE_BOUND('',#163,.T.);
#137=FACE_BOUND('',#164,.T.);
#138=FACE_BOUND('',#165,.T.);
#139=FACE_BOUND('',#166,.T.);
#140=FACE_BOUND('',#168,.T.);
#141=FACE_BOUND('',#169,.T.);
#142=FACE_BOUND('',#170,.T.);
#143=FACE_BOUND('',#171,.T.);
#144=FACE_BOUND('',#172,.T.);
#145=FACE_BOUND('',#173,.T.);
#146=FACE_BOUND('',#174,.T.);
#147=FACE_BOUND('',#175,.T.);
#148=FACE_BOUND('',#176,.T.);
#149=FACE_BOUND('',#177,.T.);
#150=FACE_BOUND('',#178,.T.);
#151=FACE_BOUND('',#179,.T.);
#152=FACE_BOUND('',#180,.T.);
#153=FACE_BOUND('',#181,.T.);
#154=FACE_BOUND('',#182,.T.);
#155=FACE_BOUND('',#183,.T.);
#156=FACE_BOUND('',#184,.T.);
#157=EDGE_LOOP('',(#185));
#158=EDGE_LOOP('',(#186));
#159=EDGE_LOOP('',(#187));
#160=EDGE_LOOP('',(#188));
#161=EDGE_LOOP('',(#189));
#162=EDGE_LOOP('',(#190));
#163=EDGE_LOOP('',(#191));
#164=EDGE_LOOP('',(#192));
#165=EDGE_LOOP('',(#193));
#166=EDGE_LOOP('',(#194));
#167=EDGE_LOOP('',(#195));
#168=EDGE_LOOP('',(#196));
#169=EDGE_LOOP('',(#197));
#170=EDGE_LOOP('',(#198));
#171=EDGE_LOOP('',(#199));
#172=EDGE_LOOP('',(#200));
#173=EDGE_LOOP('',(#201));
#174=EDGE_LOOP('',(#202));
#175=EDGE_LOOP('',(#203));
#176=EDGE_LOOP('',(#204));
#177=EDGE_LOOP('',(#205));
#178=EDGE_LOOP('',(#206));
#179=EDGE_LOOP('',(#207));
#180=EDGE_LOOP('',(#208));
#181=EDGE_LOOP('',(#209));
#182=EDGE_LOOP('',(#210));
#183=EDGE_LOOP('',(#211));
#184=EDGE_LOOP('',(#212));
#185=ORIENTED_EDGE('',*,*,#228,.F.);
#186=ORIENTED_EDGE('',*,*,#229,.F.);
#187=ORIENTED_EDGE('',*,*,#230,.T.);
#188=ORIENTED_EDGE('',*,*,#229,.T.);
#189=ORIENTED_EDGE('',*,*,#230,.F.);
#190=ORIENTED_EDGE('',*,*,#231,.F.);
#191=ORIENTED_EDGE('',*,*,#231,.T.);
#192=ORIENTED_EDGE('',*,*,#232,.F.);
#193=ORIENTED_EDGE('',*,*,#233,.F.);
#194=ORIENTED_EDGE('',*,*,#234,.F.);
#195=ORIENTED_EDGE('',*,*,#235,.F.);
#196=ORIENTED_EDGE('',*,*,#236,.T.);
#197=ORIENTED_EDGE('',*,*,#235,.T.);
#198=ORIENTED_EDGE('',*,*,#237,.T.);
#199=ORIENTED_EDGE('',*,*,#233,.T.);
#200=ORIENTED_EDGE('',*,*,#238,.F.);
#201=ORIENTED_EDGE('',*,*,#239,.T.);
#202=ORIENTED_EDGE('',*,*,#239,.F.);
#203=ORIENTED_EDGE('',*,*,#240,.T.);
#204=ORIENTED_EDGE('',*,*,#238,.T.);
#205=ORIENTED_EDGE('',*,*,#232,.T.);
#206=ORIENTED_EDGE('',*,*,#241,.F.);
#207=ORIENTED_EDGE('',*,*,#228,.T.);
#208=ORIENTED_EDGE('',*,*,#241,.T.);
#209=ORIENTED_EDGE('',*,*,#234,.T.);
#210=ORIENTED_EDGE('',*,*,#236,.F.);
#211=ORIENTED_EDGE('',*,*,#240,.F.);
#212=ORIENTED_EDGE('',*,*,#237,.F.);
#213=VERTEX_POINT('',#337);
#214=VERTEX_POINT('',#339);
#215=VERTEX_POINT('',#342);
#216=VERTEX_POINT('',#343);
#217=VERTEX_POINT('',#412);
#218=VERTEX_POINT('',#475);
#219=VERTEX_POINT('',#478);
#220=VERTEX_POINT('',#480);
#221=VERTEX_POINT('',#483);
#222=VERTEX_POINT('',#486);
#223=VERTEX_POINT('',#489);
#224=VERTEX_POINT('',#492);
#225=VERTEX_POINT('',#494);
#226=VERTEX_POINT('',#497);
#227=VERTEX_POINT('',#500);
#228=EDGE_CURVE('',#213,#213,#242,.T.);
#229=EDGE_CURVE('',#214,#214,#243,.T.);
#230=EDGE_CURVE('',#215,#215,#244,.T.);
#231=EDGE_CURVE('',#217,#217,#108,.T.);
#232=EDGE_CURVE('',#218,#218,#109,.T.);
#233=EDGE_CURVE('',#219,#219,#245,.T.);
#234=EDGE_CURVE('',#220,#220,#246,.T.);
#235=EDGE_CURVE('',#221,#221,#247,.T.);
#236=EDGE_CURVE('',#222,#222,#248,.T.);
#237=EDGE_CURVE('',#223,#223,#249,.T.);
#238=EDGE_CURVE('',#224,#224,#250,.T.);
#239=EDGE_CURVE('',#225,#225,#251,.T.);
#240=EDGE_CURVE('',#226,#226,#252,.T.);
#241=EDGE_CURVE('',#227,#227,#253,.T.);
#242=CIRCLE('',#255,0.65);
#243=CIRCLE('',#256,0.45);
#244=CIRCLE('',#258,0.45);
#245=CIRCLE('',#262,1.05);
#246=CIRCLE('',#263,0.950000000000004);
#247=CIRCLE('',#265,0.5);
#248=CIRCLE('',#267,0.5);
#249=CIRCLE('',#269,1.05);
#250=CIRCLE('',#271,0.829999999999997);
#251=CIRCLE('',#272,0.729999999999997);
#252=CIRCLE('',#274,0.729999999999997);
#253=CIRCLE('',#276,0.829999999999997);
#254=AXIS2_PLACEMENT_3D('',#335,#281,#282);
#255=AXIS2_PLACEMENT_3D('',#336,#283,#284);
#256=AXIS2_PLACEMENT_3D('',#338,#285,#286);
#257=AXIS2_PLACEMENT_3D('',#340,#287,#288);
#258=AXIS2_PLACEMENT_3D('',#341,#289,#290);
#259=AXIS2_PLACEMENT_3D('',#344,#291,#292);
#260=AXIS2_PLACEMENT_3D('',#413,#293,#294);
#261=AXIS2_PLACEMENT_3D('',#476,#295,#296);
#262=AXIS2_PLACEMENT_3D('',#477,#297,#298);
#263=AXIS2_PLACEMENT_3D('',#479,#299,#300);
#264=AXIS2_PLACEMENT_3D('',#481,#301,#302);
#265=AXIS2_PLACEMENT_3D('',#482,#303,#304);
#266=AXIS2_PLACEMENT_3D('',#484,#305,#306);
#267=AXIS2_PLACEMENT_3D('',#485,#307,#308);
#268=AXIS2_PLACEMENT_3D('',#487,#309,#310);
#269=AXIS2_PLACEMENT_3D('',#488,#311,#312);
#270=AXIS2_PLACEMENT_3D('',#490,#313,#314);
#271=AXIS2_PLACEMENT_3D('',#491,#315,#316);
#272=AXIS2_PLACEMENT_3D('',#493,#317,#318);
#273=AXIS2_PLACEMENT_3D('',#495,#319,#320);
#274=AXIS2_PLACEMENT_3D('',#496,#321,#322);
#275=AXIS2_PLACEMENT_3D('',#498,#323,#324);
#276=AXIS2_PLACEMENT_3D('',#499,#325,#326);
#277=AXIS2_PLACEMENT_3D('',#501,#327,#328);
#278=AXIS2_PLACEMENT_3D('',#502,#329,#330);
#279=AXIS2_PLACEMENT_3D('',#503,#331,#332);
#280=AXIS2_PLACEMENT_3D('',#504,#333,#334);
#281=DIRECTION('',(0.,0.,1.));
#282=DIRECTION('',(1.,0.,0.));
#283=DIRECTION('',(0.,-1.,0.));
#284=DIRECTION('',(0.,0.,1.));
#285=DIRECTION('',(0.,1.,1.22464679914735E-016));
#286=DIRECTION('',(0.,0.,1.));
#287=DIRECTION('',(0.,1.,1.22464679914735E-016));
#288=DIRECTION('',(0.,1.57788831339785E-016,-1.));
#289=DIRECTION('',(0.,1.,1.22464679914735E-016));
#290=DIRECTION('',(0.,-2.4093381610789E-016,1.));
#291=DIRECTION('',(0.,1.,1.22464679914735E-016));
#292=DIRECTION('',(0.,7.75994266789739E-017,-1.));
#293=DIRECTION('',(0.,1.,1.22464679914735E-016));
#294=DIRECTION('',(0.,0.,-1.));
#295=DIRECTION('',(0.,0.,1.));
#296=DIRECTION('',(-1.,0.,0.));
#297=DIRECTION('',(0.,1.,0.));
#298=DIRECTION('',(0.,0.,-1.));
#299=DIRECTION('',(0.,-1.,0.));
#300=DIRECTION('',(0.,0.,-1.));
#301=DIRECTION('',(0.,1.,0.));
#302=DIRECTION('',(0.,-1.91630710767092E-017,-1.));
#303=DIRECTION('',(0.,1.,0.));
#304=DIRECTION('',(0.,0.,1.));
#305=DIRECTION('',(1.,0.,6.12323399573677E-017));
#306=DIRECTION('',(0.,0.,1.));
#307=DIRECTION('',(0.,-1.,0.));
#308=DIRECTION('',(0.,0.,-1.));
#309=DIRECTION('',(0.,1.,0.));
#310=DIRECTION('',(0.,0.,-1.));
#311=DIRECTION('',(0.,-1.,0.));
#312=DIRECTION('',(0.,0.,-1.));
#313=DIRECTION('',(0.,1.,0.));
#314=DIRECTION('',(0.,0.,-1.));
#315=DIRECTION('',(0.,1.,0.));
#316=DIRECTION('',(0.,0.,1.));
#317=DIRECTION('',(0.,1.,0.));
#318=DIRECTION('',(0.,0.,1.));
#319=DIRECTION('',(0.,1.,0.));
#320=DIRECTION('',(0.,-4.22644199972449E-016,-1.));
#321=DIRECTION('',(0.,1.,0.));
#322=DIRECTION('',(0.,0.,1.));
#323=DIRECTION('',(0.,1.,0.));
#324=DIRECTION('',(0.,0.,-1.));
#325=DIRECTION('',(0.,1.,0.));
#326=DIRECTION('',(0.,0.,1.));
#327=DIRECTION('',(0.,-1.,0.));
#328=DIRECTION('',(0.,0.,1.));
#329=DIRECTION('',(0.,1.,0.));
#330=DIRECTION('',(0.,0.,-1.));
#331=DIRECTION('',(0.,-1.,0.));
#332=DIRECTION('',(0.,0.,1.));
#333=DIRECTION('',(0.,-1.,0.));
#334=DIRECTION('',(0.,0.,1.));
#335=CARTESIAN_POINT('',(0.,0.,0.));
#336=CARTESIAN_POINT('',(0.,4.8,1.87762352016172E-032));
#337=CARTESIAN_POINT('',(0.,4.8,0.65));
#338=CARTESIAN_POINT('',(0.,4.6,-2.44929359829468E-017));
#339=CARTESIAN_POINT('',(0.,4.6,0.45));
#340=CARTESIAN_POINT('',(0.,4.6,-2.44929359829468E-017));
#341=CARTESIAN_POINT('',(0.,0.799999999999999,-4.89858719658941E-016));
#342=CARTESIAN_POINT('',(0.,0.799999999999999,0.45));
#343=CARTESIAN_POINT('',(0.,0.540192378864665,-5.21675976820689E-016));
#344=CARTESIAN_POINT('',(0.,0.799999999999999,-4.89858719658941E-016));
#345=CARTESIAN_POINT('',(5.51025872298124E-017,1.7,-0.450000000000001));
#346=CARTESIAN_POINT('',(-0.0299946283474578,1.7,-0.450000000000001));
#347=CARTESIAN_POINT('',(-0.0604041755762128,1.69532880682484,-0.446850546636784));
#348=CARTESIAN_POINT('',(-0.0885496244900275,1.68663385006429,-0.441201727107539));
#349=CARTESIAN_POINT('',(-0.116599122136096,1.67796853547169,-0.435572165092956));
#350=CARTESIAN_POINT('',(-0.143161483755231,1.6651599525121,-0.427375293817868));
#351=CARTESIAN_POINT('',(-0.166747689055405,1.64938967138733,-0.417965558622577));
#352=CARTESIAN_POINT('',(-0.192364655378534,1.63226157658201,-0.40774564971652));
#353=CARTESIAN_POINT('',(-0.215129666705225,1.6112811019889,-0.395869630539444));
#354=CARTESIAN_POINT('',(-0.234102497310351,1.58760602536448,-0.384312399947045));
#355=CARTESIAN_POINT('',(-0.256035536633843,1.56023707882206,-0.370951969006115));
#356=CARTESIAN_POINT('',(-0.273577625654388,1.52836408278895,-0.357590783551162));
#357=CARTESIAN_POINT('',(-0.28494961688868,1.49382811857324,-0.348286829832819));
#358=CARTESIAN_POINT('',(-0.293087967632811,1.46911250067629,-0.341628467448691));
#359=CARTESIAN_POINT('',(-0.298200848139072,1.44238083846645,-0.337015940815761));
#360=CARTESIAN_POINT('',(-0.299594829585989,1.41558647122804,-0.335772152039657));
#361=CARTESIAN_POINT('',(-0.299864634980533,1.41040041596143,-0.335531416467309));
#362=CARTESIAN_POINT('',(-0.300000000000014,1.40519864576465,-0.335410196624956));
#363=CARTESIAN_POINT('',(-0.3,1.39999999999916,-0.335410196624969));
#364=CARTESIAN_POINT('',(-0.299999999999919,1.37084986072365,-0.335410196625042));
#365=CARTESIAN_POINT('',(-0.295566399345724,1.34130744480414,-0.339487574496231));
#366=CARTESIAN_POINT('',(-0.287449041563767,1.31413354261371,-0.346226874323867));
#367=CARTESIAN_POINT('',(-0.279387253362445,1.28714566676208,-0.352920038441429));
#368=CARTESIAN_POINT('',(-0.267595150533816,1.26168058434373,-0.362222542636941));
#369=CARTESIAN_POINT('',(-0.252979268678682,1.23875022598838,-0.372157882650361));
#370=CARTESIAN_POINT('',(-0.236079921347452,1.21223741655837,-0.383645438680494));
#371=CARTESIAN_POINT('',(-0.214996405884549,1.18841613076743,-0.396227900403842));
#372=CARTESIAN_POINT('',(-0.190691860697082,1.16840420067738,-0.407598594531293));
#373=CARTESIAN_POINT('',(-0.162930901731974,1.14554632097803,-0.420586345202708));
#374=CARTESIAN_POINT('',(-0.129927113372421,1.12701170985936,-0.432367788791161));
#375=CARTESIAN_POINT('',(-0.0943632870578419,1.11522716060755,-0.439994965943521));
#376=CARTESIAN_POINT('',(-0.0645651358574737,1.10535314487799,-0.446385610639838));
#377=CARTESIAN_POINT('',(-0.0320353920098104,1.1,-0.450000000000001));
#378=CARTESIAN_POINT('',(1.40991831963651E-016,1.1,-0.450000000000001));
#379=CARTESIAN_POINT('',(0.029994628347458,1.1,-0.450000000000001));
#380=CARTESIAN_POINT('',(0.0604041755762129,1.10467119317516,-0.446850546636784));
#381=CARTESIAN_POINT('',(0.0885496244900277,1.11336614993571,-0.441201727107539));
#382=CARTESIAN_POINT('',(0.116599122136096,1.12203146452831,-0.435572165092956));
#383=CARTESIAN_POINT('',(0.143161483755231,1.13484004748791,-0.427375293817868));
#384=CARTESIAN_POINT('',(0.166747689055405,1.15061032861267,-0.417965558622577));
#385=CARTESIAN_POINT('',(0.192364655378534,1.167738423418,-0.40774564971652));
#386=CARTESIAN_POINT('',(0.215129666705225,1.18871889801111,-0.395869630539444));
#387=CARTESIAN_POINT('',(0.234102497310351,1.21239397463552,-0.384312399947045));
#388=CARTESIAN_POINT('',(0.256035536633843,1.23976292117794,-0.370951969006115));
#389=CARTESIAN_POINT('',(0.273577625654388,1.27163591721105,-0.357590783551162));
#390=CARTESIAN_POINT('',(0.28494961688868,1.30617188142676,-0.348286829832819));
#391=CARTESIAN_POINT('',(0.293087967632817,1.33088749932372,-0.341628467448687));
#392=CARTESIAN_POINT('',(0.298200848139079,1.35761916153359,-0.337015940815755));
#393=CARTESIAN_POINT('',(0.299594829585991,1.38441352877202,-0.335772152039655));
#394=CARTESIAN_POINT('',(0.29986463498052,1.38959958403833,-0.335531416467321));
#395=CARTESIAN_POINT('',(0.300000000000001,1.39480135423481,-0.335410196625092));
#396=CARTESIAN_POINT('',(0.300000000000001,1.40000000000001,-0.335410196625092));
#397=CARTESIAN_POINT('',(0.3,1.42915013927546,-0.335410196625093));
#398=CARTESIAN_POINT('',(0.295566399345902,1.45869255519495,-0.339487574496073));
#399=CARTESIAN_POINT('',(0.287449041564047,1.48586645738535,-0.346226874323635));
#400=CARTESIAN_POINT('',(0.279387253362824,1.51285433323697,-0.352920038441125));
#401=CARTESIAN_POINT('',(0.267595150534298,1.53831941565533,-0.362222542636579));
#402=CARTESIAN_POINT('',(0.25297926867927,1.5612497740107,-0.372157882649961));
#403=CARTESIAN_POINT('',(0.236079921348181,1.5877625834407,-0.383645438680037));
#404=CARTESIAN_POINT('',(0.214996405885439,1.61158386923165,-0.396227900403348));
#405=CARTESIAN_POINT('',(0.190691860698143,1.63159579932175,-0.407598594530796));
#406=CARTESIAN_POINT('',(0.162930901733149,1.65445367902122,-0.420586345202247));
#407=CARTESIAN_POINT('',(0.129927113373705,1.67298829014003,-0.43236778879077));
#408=CARTESIAN_POINT('',(0.0943632870592008,1.684772839392,-0.439994965943229));
#409=CARTESIAN_POINT('',(0.0645651358584505,1.69464685512185,-0.446385610639725));
#410=CARTESIAN_POINT('',(0.0320353920102891,1.7,-0.450000000000001));
#411=CARTESIAN_POINT('',(5.51025872298124E-017,1.7,-0.450000000000001));
#412=CARTESIAN_POINT('',(5.51025872298124E-017,1.7,-0.450000000000001));
#413=CARTESIAN_POINT('',(0.,4.8,0.));
#414=CARTESIAN_POINT('',(-2.59077596508747E-017,1.7,-0.829999999999997));
#415=CARTESIAN_POINT('',(-0.0324122651266415,1.7,-0.829999999999997));
#416=CARTESIAN_POINT('',(-0.0652686063217111,1.69458102203227,-0.828000434637212));
#417=CARTESIAN_POINT('',(-0.0957993336748129,1.68429296098824,-0.824452841384792));
#418=CARTESIAN_POINT('',(-0.126288113723717,1.67401903509472,-0.820910122302962));
#419=CARTESIAN_POINT('',(-0.155288697368064,1.65865206648607,-0.815760120558187));
#420=CARTESIAN_POINT('',(-0.180724002173372,1.63945528818224,-0.810085696107785));
#421=CARTESIAN_POINT('',(-0.207080101827688,1.61956355871839,-0.804205849279118));
#422=CARTESIAN_POINT('',(-0.23033278299819,1.59503350546258,-0.797634749162466));
#423=CARTESIAN_POINT('',(-0.248792081010338,1.5676380041236,-0.791834894675993));
#424=CARTESIAN_POINT('',(-0.267883495377857,1.53930437694427,-0.78583643118081));
#425=CARTESIAN_POINT('',(-0.282374196798496,1.50704219200132,-0.780542491127609));
#426=CARTESIAN_POINT('',(-0.290843391762924,1.47355352790885,-0.777373862094574));
#427=CARTESIAN_POINT('',(-0.296882386253983,1.44967429749595,-0.775114458059706));
#428=CARTESIAN_POINT('',(-0.299999999999941,1.42473442957101,-0.773886296557854));
#429=CARTESIAN_POINT('',(-0.3,1.40000000000071,-0.773886296557831));
#430=CARTESIAN_POINT('',(-0.300000000000077,1.36766572830661,-0.773886296557802));
#431=CARTESIAN_POINT('',(-0.294605264092641,1.33488991065988,-0.776032419847908));
#432=CARTESIAN_POINT('',(-0.284374989165504,1.30444443743497,-0.7797633394416));
#433=CARTESIAN_POINT('',(-0.274161563268825,1.27404910721299,-0.783488114295456));
#434=CARTESIAN_POINT('',(-0.258898042057575,1.24514298756553,-0.788840401167502));
#435=CARTESIAN_POINT('',(-0.239813989522281,1.21975225263708,-0.794600056902466));
#436=CARTESIAN_POINT('',(-0.219927112142241,1.19329338436593,-0.800602008906144));
#437=CARTESIAN_POINT('',(-0.195355674517134,1.16992276418445,-0.80717004865166));
#438=CARTESIAN_POINT('',(-0.167876264352981,1.15136862654346,-0.812845348062523));
#439=CARTESIAN_POINT('',(-0.139553973780057,1.13224537482666,-0.818694726853501));
#440=CARTESIAN_POINT('',(-0.107283178008154,1.11771742440542,-0.823723361562654));
#441=CARTESIAN_POINT('',(-0.0738029853013017,1.10921980920184,-0.826712234916486));
#442=CARTESIAN_POINT('',(-0.0498387816701427,1.10313744931517,-0.828851588483119));
#443=CARTESIAN_POINT('',(-0.0248164258335007,1.1,-0.829999999999997));
#444=CARTESIAN_POINT('',(5.04619954169415E-017,1.1,-0.829999999999997));
#445=CARTESIAN_POINT('',(0.0324122651266415,1.1,-0.829999999999997));
#446=CARTESIAN_POINT('',(0.0652686063217111,1.10541897796773,-0.828000434637212));
#447=CARTESIAN_POINT('',(0.0957993336748129,1.11570703901176,-0.824452841384792));
#448=CARTESIAN_POINT('',(0.126288113723717,1.12598096490528,-0.820910122302962));
#449=CARTESIAN_POINT('',(0.155288697368064,1.14134793351393,-0.815760120558187));
#450=CARTESIAN_POINT('',(0.180724002173372,1.16054471181776,-0.810085696107785));
#451=CARTESIAN_POINT('',(0.207080101827688,1.18043644128161,-0.804205849279118));
#452=CARTESIAN_POINT('',(0.23033278299819,1.20496649453742,-0.797634749162466));
#453=CARTESIAN_POINT('',(0.248792081010338,1.2323619958764,-0.791834894675993));
#454=CARTESIAN_POINT('',(0.267883495377857,1.26069562305573,-0.78583643118081));
#455=CARTESIAN_POINT('',(0.282374196798496,1.29295780799868,-0.780542491127609));
#456=CARTESIAN_POINT('',(0.290843391762924,1.32644647209115,-0.777373862094574));
#457=CARTESIAN_POINT('',(0.296882386254107,1.35032570250454,-0.77511445805966));
#458=CARTESIAN_POINT('',(0.300000000000068,1.37526557043002,-0.773886296557805));
#459=CARTESIAN_POINT('',(0.3,1.40000000000083,-0.773886296557831));
#460=CARTESIAN_POINT('',(0.299999999999911,1.43233427169495,-0.773886296557866));
#461=CARTESIAN_POINT('',(0.294605264092298,1.46511008934168,-0.776032419848041));
#462=CARTESIAN_POINT('',(0.284374989164992,1.49555556256656,-0.779763339441786));
#463=CARTESIAN_POINT('',(0.274161563268143,1.5259508927885,-0.783488114295696));
#464=CARTESIAN_POINT('',(0.258898042056727,1.5548570124359,-0.788840401167784));
#465=CARTESIAN_POINT('',(0.239813989521279,1.58024774736425,-0.794600056902769));
#466=CARTESIAN_POINT('',(0.219927112141073,1.60670661563532,-0.800602008906469));
#467=CARTESIAN_POINT('',(0.195355674515805,1.63007723581669,-0.807170048651987));
#468=CARTESIAN_POINT('',(0.167876264351511,1.64863137345754,-0.812845348062826));
#469=CARTESIAN_POINT('',(0.139553973778474,1.66775462517417,-0.818694726853775));
#470=CARTESIAN_POINT('',(0.10728317800648,1.68228257559521,-0.823723361562874));
#471=CARTESIAN_POINT('',(0.0738029852995775,1.6907801907986,-0.82671223491664));
#472=CARTESIAN_POINT('',(0.0498387816689483,1.69686255068498,-0.828851588483176));
#473=CARTESIAN_POINT('',(0.0248164258329107,1.7,-0.829999999999997));
#474=CARTESIAN_POINT('',(-2.59077596508747E-017,1.7,-0.829999999999997));
#475=CARTESIAN_POINT('',(-2.59077596508747E-017,1.7,-0.829999999999997));
#476=CARTESIAN_POINT('',(0.,1.4,-1.));
#477=CARTESIAN_POINT('',(0.,-1.75000000000001,0.));
#478=CARTESIAN_POINT('',(0.,-1.75000000000001,-1.05));
#479=CARTESIAN_POINT('',(0.,-1.9,0.));
#480=CARTESIAN_POINT('',(0.,-1.9,-0.950000000000004));
#481=CARTESIAN_POINT('',(0.,-1.9,0.));
#482=CARTESIAN_POINT('',(0.,-9.5,0.));
#483=CARTESIAN_POINT('',(0.,-9.5,0.5));
#484=CARTESIAN_POINT('',(0.,-9.5,0.));
#485=CARTESIAN_POINT('',(0.,-1.9,0.));
#486=CARTESIAN_POINT('',(0.,-1.9,-0.5));
#487=CARTESIAN_POINT('',(0.,-10.,0.));
#488=CARTESIAN_POINT('',(0.,0.,0.));
#489=CARTESIAN_POINT('',(0.,0.,-1.05));
#490=CARTESIAN_POINT('',(0.,-1.9,0.));
#491=CARTESIAN_POINT('',(0.,0.7,0.));
#492=CARTESIAN_POINT('',(0.,0.7,0.829999999999997));
#493=CARTESIAN_POINT('',(0.,0.15,0.));
#494=CARTESIAN_POINT('',(0.,0.15,0.729999999999997));
#495=CARTESIAN_POINT('',(0.,0.7,0.));
#496=CARTESIAN_POINT('',(0.,0.,0.));
#497=CARTESIAN_POINT('',(0.,0.,0.729999999999997));
#498=CARTESIAN_POINT('',(0.,4.8,0.));
#499=CARTESIAN_POINT('',(0.,4.8,0.));
#500=CARTESIAN_POINT('',(0.,4.8,0.829999999999997));
#501=CARTESIAN_POINT('',(0.,4.8,0.));
#502=CARTESIAN_POINT('',(0.,4.8,0.));
#503=CARTESIAN_POINT('',(0.,-1.9,0.));
#504=CARTESIAN_POINT('',(0.,0.,0.));
#505=(
GEOMETRIC_REPRESENTATION_CONTEXT(3)
GLOBAL_UNCERTAINTY_ASSIGNED_CONTEXT((#506))
GLOBAL_UNIT_ASSIGNED_CONTEXT((#512,#508,#507))
REPRESENTATION_CONTEXT('SGM-0','TOP_LEVEL_ASSEMBLY_PART')
);
#506=UNCERTAINTY_MEASURE_WITH_UNIT(LENGTH_MEASURE(0.0508),#512,
'DISTANCE_ACCURACY_VALUE','Maximum Tolerance applied to model');
#507=(
NAMED_UNIT(*)
SI_UNIT($,.STERADIAN.)
SOLID_ANGLE_UNIT()
);
#508=(
CONVERSION_BASED_UNIT('DEGREE',#510)
NAMED_UNIT(#509)
PLANE_ANGLE_UNIT()
);
#509=DIMENSIONAL_EXPONENTS(0.,0.,0.,0.,0.,0.,0.);
#510=PLANE_ANGLE_MEASURE_WITH_UNIT(PLANE_ANGLE_MEASURE(0.0174532925),#511);
#511=(
NAMED_UNIT(*)
PLANE_ANGLE_UNIT()
SI_UNIT($,.RADIAN.)
);
#512=(
LENGTH_UNIT()
NAMED_UNIT(*)
SI_UNIT(.MILLI.,.METRE.)
);
ENDSEC;
END-ISO-10303-21;
