ISO-10303-21;
HEADER;
/* Generated by software containing ST-Developer
 * from STEP Tools, Inc. (www.steptools.com) 
 */
/* OPTION: using custom schema-name function */

FILE_DESCRIPTION(
/* description */ (''),
/* implementation_level */ '2;1');

FILE_NAME(
/* name */ 'FM10S-005-0.5-02_1010090000009.stp',
/* time_stamp */ '2023-07-31T14:46:53+08:00',
/* author */ (''),
/* organization */ (''),
/* preprocessor_version */ 'ST-DEVELOPER v11',
/* originating_system */ 'SIEMENS PLM Software NX 7.5',
/* authorisation */ '');

FILE_SCHEMA (('CONFIG_CONTROL_DESIGN'));
ENDSEC;

DATA;
#10=SHAPE_REPRESENTATION_RELATIONSHIP('None',
'relationship between 5A(4+2+12)-None and 5A(4+2+12)-None',#94,#11);
#11=ADVANCED_BREP_SHAPE_REPRESENTATION('5A(4+2+12)-None',(#95),#543);
#12=CC_DESIGN_APPROVAL(#24,(#82));
#13=CC_DESIGN_APPROVAL(#25,(#84));
#14=CC_DESIGN_APPROVAL(#26,(#31));
#15=APPROVAL_PERSON_ORGANIZATION(#69,#24,#18);
#16=APPROVAL_PERSON_ORGANIZATION(#70,#25,#19);
#17=APPROVAL_PERSON_ORGANIZATION(#71,#26,#20);
#18=APPROVAL_ROLE('approver');
#19=APPROVAL_ROLE('approver');
#20=APPROVAL_ROLE('approver');
#21=APPROVAL_DATE_TIME(#39,#24);
#22=APPROVAL_DATE_TIME(#40,#25);
#23=APPROVAL_DATE_TIME(#41,#26);
#24=APPROVAL(#27,'');
#25=APPROVAL(#28,'');
#26=APPROVAL(#29,'');
#27=APPROVAL_STATUS('not_yet_approved');
#28=APPROVAL_STATUS('not_yet_approved');
#29=APPROVAL_STATUS('not_yet_approved');
#30=CC_DESIGN_SECURITY_CLASSIFICATION(#31,(#84));
#31=SECURITY_CLASSIFICATION(' ',' ',#32);
#32=SECURITY_CLASSIFICATION_LEVEL('unclassified');
#33=CC_DESIGN_DATE_AND_TIME_ASSIGNMENT(#37,#35,(#82));
#34=CC_DESIGN_DATE_AND_TIME_ASSIGNMENT(#38,#36,(#31));
#35=DATE_TIME_ROLE('creation_date');
#36=DATE_TIME_ROLE('classification_date');
#37=DATE_AND_TIME(#52,#42);
#38=DATE_AND_TIME(#53,#43);
#39=DATE_AND_TIME(#54,#44);
#40=DATE_AND_TIME(#55,#45);
#41=DATE_AND_TIME(#56,#46);
#42=LOCAL_TIME(14,7,0.,#47);
#43=LOCAL_TIME(14,7,0.,#48);
#44=LOCAL_TIME(14,7,0.,#49);
#45=LOCAL_TIME(14,7,0.,#50);
#46=LOCAL_TIME(14,7,0.,#51);
#47=COORDINATED_UNIVERSAL_TIME_OFFSET(8,0,.AHEAD.);
#48=COORDINATED_UNIVERSAL_TIME_OFFSET(8,0,.AHEAD.);
#49=COORDINATED_UNIVERSAL_TIME_OFFSET(8,0,.AHEAD.);
#50=COORDINATED_UNIVERSAL_TIME_OFFSET(8,0,.AHEAD.);
#51=COORDINATED_UNIVERSAL_TIME_OFFSET(8,0,.AHEAD.);
#52=CALENDAR_DATE(2023,31,7);
#53=CALENDAR_DATE(2023,31,7);
#54=CALENDAR_DATE(2023,31,7);
#55=CALENDAR_DATE(2023,31,7);
#56=CALENDAR_DATE(2023,31,7);
#57=CC_DESIGN_PERSON_AND_ORGANIZATION_ASSIGNMENT(#65,#61,(#82,#84));
#58=CC_DESIGN_PERSON_AND_ORGANIZATION_ASSIGNMENT(#66,#62,(#86));
#59=CC_DESIGN_PERSON_AND_ORGANIZATION_ASSIGNMENT(#67,#63,(#84));
#60=CC_DESIGN_PERSON_AND_ORGANIZATION_ASSIGNMENT(#68,#64,(#31));
#61=PERSON_AND_ORGANIZATION_ROLE('creator');
#62=PERSON_AND_ORGANIZATION_ROLE('design_owner');
#63=PERSON_AND_ORGANIZATION_ROLE('design_supplier');
#64=PERSON_AND_ORGANIZATION_ROLE('classification_officer');
#65=PERSON_AND_ORGANIZATION(#79,#72);
#66=PERSON_AND_ORGANIZATION(#79,#73);
#67=PERSON_AND_ORGANIZATION(#79,#74);
#68=PERSON_AND_ORGANIZATION(#79,#75);
#69=PERSON_AND_ORGANIZATION(#79,#76);
#70=PERSON_AND_ORGANIZATION(#79,#77);
#71=PERSON_AND_ORGANIZATION(#79,#78);
#72=ORGANIZATION('','',' ');
#73=ORGANIZATION('','',' ');
#74=ORGANIZATION('','',' ');
#75=ORGANIZATION('','',' ');
#76=ORGANIZATION('','',' ');
#77=ORGANIZATION('','',' ');
#78=ORGANIZATION('','',' ');
#79=PERSON('','','',(' '),$,$);
#80=SHAPE_DEFINITION_REPRESENTATION(#81,#94);
#81=PRODUCT_DEFINITION_SHAPE('NONE','NONE',#82);
#82=PRODUCT_DEFINITION('','',#84,#83);
#83=DESIGN_CONTEXT('detailed design',#93,'design');
#84=PRODUCT_DEFINITION_FORMATION_WITH_SPECIFIED_SOURCE('','',#86,.NOT_KNOWN.);
#85=PRODUCT_RELATED_PRODUCT_CATEGORY('detail','',(#86));
#86=PRODUCT('5A(4+2+12)','5A(4+2+12)','',(#91));
#87=PRODUCT_CATEGORY_RELATIONSHIP(' ',' ',#89,#90);
#88=PRODUCT_CATEGORY_RELATIONSHIP('','',#90,#85);
#89=PRODUCT_CATEGORY('part',' ');
#90=PRODUCT_CATEGORY(' ','');
#91=MECHANICAL_CONTEXT('NONE',#93,'mechanical');
#92=APPLICATION_PROTOCOL_DEFINITION('international standard',
'config_control_design',1994,#93);
#93=APPLICATION_CONTEXT(
'configuration controlled 3D designs of mechanical parts and assemblies');
#94=SHAPE_REPRESENTATION('5A(4+2+12)-None',(#265),#543);
#95=MANIFOLD_SOLID_BREP('2',#96);
#96=CLOSED_SHELL('',(#112,#113,#114,#115,#116,#117,#118,#119,#120,#121,#122,
#123,#124,#125,#126));
#97=PLANE('',#289);
#98=PLANE('',#290);
#99=PLANE('',#291);
#100=PLANE('',#292);
#101=FACE_OUTER_BOUND('',#184,.T.);
#102=VERTEX_LOOP('',#230);
#103=(
BOUNDED_SURFACE()
B_SPLINE_SURFACE(3,3,((#489,#490,#491,#492,#493,#494,#495),(#496,#497,#498,
#499,#500,#501,#502),(#503,#504,#505,#506,#507,#508,#509),(#510,#511,#512,
#513,#514,#515,#516)),.UNSPECIFIED.,.F.,.T.,.F.)
B_SPLINE_SURFACE_WITH_KNOTS((4,4),(1,3,3,3,1),(0.,1.),(-0.5,0.,0.5,1.,1.5),
 .UNSPECIFIED.)
GEOMETRIC_REPRESENTATION_ITEM()
RATIONAL_B_SPLINE_SURFACE(((1.,0.333333333333333,0.333333333333333,1.,0.333333333333333,
0.333333333333333,1.),(0.804737854124365,0.268245951374788,0.268245951374788,
0.804737854124365,0.268245951374788,0.268245951374788,0.804737854124365),
(0.804737854124365,0.268245951374788,0.268245951374788,0.804737854124365,
0.268245951374788,0.268245951374788,0.804737854124365),(1.,0.333333333333333,
0.333333333333333,1.,0.333333333333333,0.333333333333333,1.)))
REPRESENTATION_ITEM('')
SURFACE()
);
#104=CYLINDRICAL_SURFACE('',#272,0.35);
#105=CYLINDRICAL_SURFACE('',#277,0.6);
#106=CYLINDRICAL_SURFACE('',#280,1.);
#107=CYLINDRICAL_SURFACE('',#284,0.9);
#108=CYLINDRICAL_SURFACE('',#286,1.25);
#109=CYLINDRICAL_SURFACE('',#288,0.799999999999999);
#110=B_SPLINE_CURVE_WITH_KNOTS('',3,(#360,#361,#362,#363,#364,#365,#366,
#367,#368,#369,#370,#371,#372,#373,#374,#375,#376,#377,#378,#379,#380,#381,
#382,#383,#384,#385,#386,#387,#388,#389,#390,#391,#392,#393,#394,#395,#396,
#397,#398,#399,#400,#401,#402,#403,#404,#405,#406,#407,#408,#409,#410,#411,
#412,#413,#414,#415,#416,#417,#418,#419,#420),.UNSPECIFIED.,.T.,.F.,(1,3,
3,3,3,3,3,3,3,3,3,3,3,3,3,3,3,3,3,3,3,3,1),(-0.0418509954351501,0.,0.0472589780432345,
0.0941282593895864,0.14645801308002,0.204214976556534,0.25661342427182,0.302687393986253,
0.349072750399131,0.400916464117495,0.458431872682352,0.500339788797109,
0.547534578176314,0.594340200157224,0.646598877893045,0.704277394004055,
0.756604672462296,0.802616063029126,0.848938417358972,0.900711715277848,
0.95814900456485,1.,1.04725897804323),.UNSPECIFIED.);
#111=B_SPLINE_CURVE_WITH_KNOTS('',3,(#422,#423,#424,#425,#426,#427,#428,
#429,#430,#431,#432,#433,#434,#435,#436,#437,#438,#439,#440,#441,#442,#443,
#444,#445,#446,#447,#448,#449,#450,#451,#452,#453,#454,#455,#456,#457,#458,
#459,#460,#461,#462,#463,#464,#465,#466,#467,#468,#469,#470,#471,#472,#473,
#474,#475,#476,#477,#478,#479,#480,#481,#482),.UNSPECIFIED.,.T.,.F.,(1,3,
3,3,3,3,3,3,3,3,3,3,3,3,3,3,3,3,3,3,3,3,1),(-0.027744945499426,0.,0.0509089820681303,
0.101647373272798,0.154901015140257,0.210198955780185,0.262910520384745,
0.312739802666696,0.363299683650495,0.417083864875519,0.472302807637323,
0.500053715063248,0.55095175998959,0.601679250701728,0.654921451707316,0.710207512294004,
0.76290775249504,0.812726329594852,0.863275348436753,0.91704797482033,0.972255054500574,
1.,1.05090898206813),.UNSPECIFIED.);
#112=ADVANCED_FACE('',(#131,#132),#127,.T.);
#113=ADVANCED_FACE('',(#133,#134),#128,.F.);
#114=ADVANCED_FACE('',(#135,#136),#104,.F.);
#115=ADVANCED_FACE('',(#137,#138),#103,.T.);
#116=ADVANCED_FACE('',(#139,#140),#129,.F.);
#117=ADVANCED_FACE('',(#141,#142,#143),#105,.F.);
#118=ADVANCED_FACE('',(#144,#145),#106,.T.);
#119=ADVANCED_FACE('',(#146,#147),#130,.T.);
#120=ADVANCED_FACE('',(#148,#149,#150),#107,.T.);
#121=ADVANCED_FACE('',(#151,#152),#108,.T.);
#122=ADVANCED_FACE('',(#153,#154),#109,.T.);
#123=ADVANCED_FACE('',(#101),#97,.F.);
#124=ADVANCED_FACE('',(#155,#156),#98,.F.);
#125=ADVANCED_FACE('',(#157,#158),#99,.F.);
#126=ADVANCED_FACE('',(#159,#160),#100,.F.);
#127=CONICAL_SURFACE('',#268,1.25,44.9999999999996);
#128=CONICAL_SURFACE('',#271,0.6,11.30993247402);
#129=CONICAL_SURFACE('',#276,0.6,59.0000000000001);
#130=CONICAL_SURFACE('',#282,0.9,45.0000000000002);
#131=FACE_BOUND('',#161,.T.);
#132=FACE_BOUND('',#162,.T.);
#133=FACE_BOUND('',#163,.T.);
#134=FACE_BOUND('',#164,.T.);
#135=FACE_BOUND('',#165,.T.);
#136=FACE_BOUND('',#166,.T.);
#137=FACE_BOUND('',#167,.T.);
#138=FACE_BOUND('',#168,.T.);
#139=FACE_BOUND('',#169,.T.);
#140=FACE_BOUND('',#102,.T.);
#141=FACE_BOUND('',#170,.T.);
#142=FACE_BOUND('',#171,.T.);
#143=FACE_BOUND('',#172,.T.);
#144=FACE_BOUND('',#173,.T.);
#145=FACE_BOUND('',#174,.T.);
#146=FACE_BOUND('',#175,.T.);
#147=FACE_BOUND('',#176,.T.);
#148=FACE_BOUND('',#177,.T.);
#149=FACE_BOUND('',#178,.T.);
#150=FACE_BOUND('',#179,.T.);
#151=FACE_BOUND('',#180,.T.);
#152=FACE_BOUND('',#181,.T.);
#153=FACE_BOUND('',#182,.T.);
#154=FACE_BOUND('',#183,.T.);
#155=FACE_BOUND('',#185,.T.);
#156=FACE_BOUND('',#186,.T.);
#157=FACE_BOUND('',#187,.T.);
#158=FACE_BOUND('',#188,.T.);
#159=FACE_BOUND('',#189,.T.);
#160=FACE_BOUND('',#190,.T.);
#161=EDGE_LOOP('',(#191));
#162=EDGE_LOOP('',(#192));
#163=EDGE_LOOP('',(#193));
#164=EDGE_LOOP('',(#194));
#165=EDGE_LOOP('',(#195));
#166=EDGE_LOOP('',(#196));
#167=EDGE_LOOP('',(#197));
#168=EDGE_LOOP('',(#198));
#169=EDGE_LOOP('',(#199));
#170=EDGE_LOOP('',(#200));
#171=EDGE_LOOP('',(#201));
#172=EDGE_LOOP('',(#202));
#173=EDGE_LOOP('',(#203));
#174=EDGE_LOOP('',(#204));
#175=EDGE_LOOP('',(#205));
#176=EDGE_LOOP('',(#206));
#177=EDGE_LOOP('',(#207));
#178=EDGE_LOOP('',(#208));
#179=EDGE_LOOP('',(#209));
#180=EDGE_LOOP('',(#210));
#181=EDGE_LOOP('',(#211));
#182=EDGE_LOOP('',(#212));
#183=EDGE_LOOP('',(#213));
#184=EDGE_LOOP('',(#214));
#185=EDGE_LOOP('',(#215));
#186=EDGE_LOOP('',(#216));
#187=EDGE_LOOP('',(#217));
#188=EDGE_LOOP('',(#218));
#189=EDGE_LOOP('',(#219));
#190=EDGE_LOOP('',(#220));
#191=ORIENTED_EDGE('',*,*,#237,.F.);
#192=ORIENTED_EDGE('',*,*,#238,.F.);
#193=ORIENTED_EDGE('',*,*,#239,.F.);
#194=ORIENTED_EDGE('',*,*,#240,.F.);
#195=ORIENTED_EDGE('',*,*,#241,.F.);
#196=ORIENTED_EDGE('',*,*,#242,.F.);
#197=ORIENTED_EDGE('',*,*,#243,.F.);
#198=ORIENTED_EDGE('',*,*,#244,.F.);
#199=ORIENTED_EDGE('',*,*,#245,.T.);
#200=ORIENTED_EDGE('',*,*,#240,.T.);
#201=ORIENTED_EDGE('',*,*,#241,.T.);
#202=ORIENTED_EDGE('',*,*,#245,.F.);
#203=ORIENTED_EDGE('',*,*,#246,.F.);
#204=ORIENTED_EDGE('',*,*,#247,.T.);
#205=ORIENTED_EDGE('',*,*,#247,.F.);
#206=ORIENTED_EDGE('',*,*,#248,.T.);
#207=ORIENTED_EDGE('',*,*,#248,.F.);
#208=ORIENTED_EDGE('',*,*,#249,.T.);
#209=ORIENTED_EDGE('',*,*,#242,.T.);
#210=ORIENTED_EDGE('',*,*,#250,.F.);
#211=ORIENTED_EDGE('',*,*,#237,.T.);
#212=ORIENTED_EDGE('',*,*,#251,.F.);
#213=ORIENTED_EDGE('',*,*,#243,.T.);
#214=ORIENTED_EDGE('',*,*,#244,.T.);
#215=ORIENTED_EDGE('',*,*,#238,.T.);
#216=ORIENTED_EDGE('',*,*,#251,.T.);
#217=ORIENTED_EDGE('',*,*,#249,.F.);
#218=ORIENTED_EDGE('',*,*,#250,.T.);
#219=ORIENTED_EDGE('',*,*,#239,.T.);
#220=ORIENTED_EDGE('',*,*,#246,.T.);
#221=VERTEX_POINT('',#351);
#222=VERTEX_POINT('',#353);
#223=VERTEX_POINT('',#356);
#224=VERTEX_POINT('',#358);
#225=VERTEX_POINT('',#421);
#226=VERTEX_POINT('',#483);
#227=VERTEX_POINT('',#486);
#228=VERTEX_POINT('',#488);
#229=VERTEX_POINT('',#518);
#230=VERTEX_POINT('',#519);
#231=VERTEX_POINT('',#523);
#232=VERTEX_POINT('',#525);
#233=VERTEX_POINT('',#528);
#234=VERTEX_POINT('',#531);
#235=VERTEX_POINT('',#534);
#236=VERTEX_POINT('',#537);
#237=EDGE_CURVE('',#221,#221,#252,.T.);
#238=EDGE_CURVE('',#222,#222,#253,.T.);
#239=EDGE_CURVE('',#223,#223,#254,.T.);
#240=EDGE_CURVE('',#224,#224,#255,.T.);
#241=EDGE_CURVE('',#225,#225,#110,.T.);
#242=EDGE_CURVE('',#226,#226,#111,.T.);
#243=EDGE_CURVE('',#227,#227,#256,.T.);
#244=EDGE_CURVE('',#228,#228,#257,.T.);
#245=EDGE_CURVE('',#229,#229,#258,.T.);
#246=EDGE_CURVE('',#231,#231,#259,.T.);
#247=EDGE_CURVE('',#232,#232,#260,.T.);
#248=EDGE_CURVE('',#233,#233,#261,.T.);
#249=EDGE_CURVE('',#234,#234,#262,.T.);
#250=EDGE_CURVE('',#235,#235,#263,.T.);
#251=EDGE_CURVE('',#236,#236,#264,.T.);
#252=CIRCLE('',#266,1.25);
#253=CIRCLE('',#267,1.05);
#254=CIRCLE('',#269,0.800000000000016);
#255=CIRCLE('',#270,0.6);
#256=CIRCLE('',#273,0.799999999999999);
#257=CIRCLE('',#274,0.0999999999999995);
#258=CIRCLE('',#275,0.6);
#259=CIRCLE('',#278,0.999999999999999);
#260=CIRCLE('',#279,1.);
#261=CIRCLE('',#281,0.9);
#262=CIRCLE('',#283,0.9);
#263=CIRCLE('',#285,1.25);
#264=CIRCLE('',#287,0.799999999999999);
#265=AXIS2_PLACEMENT_3D('',#349,#293,#294);
#266=AXIS2_PLACEMENT_3D('',#350,#295,#296);
#267=AXIS2_PLACEMENT_3D('',#352,#297,#298);
#268=AXIS2_PLACEMENT_3D('',#354,#299,#300);
#269=AXIS2_PLACEMENT_3D('',#355,#301,#302);
#270=AXIS2_PLACEMENT_3D('',#357,#303,#304);
#271=AXIS2_PLACEMENT_3D('',#359,#305,#306);
#272=AXIS2_PLACEMENT_3D('',#484,#307,#308);
#273=AXIS2_PLACEMENT_3D('',#485,#309,#310);
#274=AXIS2_PLACEMENT_3D('',#487,#311,#312);
#275=AXIS2_PLACEMENT_3D('',#517,#313,#314);
#276=AXIS2_PLACEMENT_3D('',#520,#315,#316);
#277=AXIS2_PLACEMENT_3D('',#521,#317,#318);
#278=AXIS2_PLACEMENT_3D('',#522,#319,#320);
#279=AXIS2_PLACEMENT_3D('',#524,#321,#322);
#280=AXIS2_PLACEMENT_3D('',#526,#323,#324);
#281=AXIS2_PLACEMENT_3D('',#527,#325,#326);
#282=AXIS2_PLACEMENT_3D('',#529,#327,#328);
#283=AXIS2_PLACEMENT_3D('',#530,#329,#330);
#284=AXIS2_PLACEMENT_3D('',#532,#331,#332);
#285=AXIS2_PLACEMENT_3D('',#533,#333,#334);
#286=AXIS2_PLACEMENT_3D('',#535,#335,#336);
#287=AXIS2_PLACEMENT_3D('',#536,#337,#338);
#288=AXIS2_PLACEMENT_3D('',#538,#339,#340);
#289=AXIS2_PLACEMENT_3D('',#539,#341,#342);
#290=AXIS2_PLACEMENT_3D('',#540,#343,#344);
#291=AXIS2_PLACEMENT_3D('',#541,#345,#346);
#292=AXIS2_PLACEMENT_3D('',#542,#347,#348);
#293=DIRECTION('',(0.,0.,1.));
#294=DIRECTION('',(1.,0.,0.));
#295=DIRECTION('',(0.,-1.,0.));
#296=DIRECTION('',(0.,0.,-1.));
#297=DIRECTION('',(0.,1.,0.));
#298=DIRECTION('',(0.,0.,-1.));
#299=DIRECTION('',(0.,-1.,0.));
#300=DIRECTION('',(0.,7.44999844863958E-017,1.));
#301=DIRECTION('',(0.,1.,0.));
#302=DIRECTION('',(0.,0.,1.));
#303=DIRECTION('',(0.,-1.,0.));
#304=DIRECTION('',(0.,0.,1.));
#305=DIRECTION('',(0.,-1.,0.));
#306=DIRECTION('',(0.,2.76725579418039E-016,1.));
#307=DIRECTION('',(1.,0.,0.));
#308=DIRECTION('',(0.,0.,1.));
#309=DIRECTION('',(0.,-1.,0.));
#310=DIRECTION('',(0.,0.,-1.));
#311=DIRECTION('',(0.,1.,0.));
#312=DIRECTION('',(0.,0.,-1.));
#313=DIRECTION('',(0.,-1.,0.));
#314=DIRECTION('',(0.,0.,-1.));
#315=DIRECTION('',(0.,-1.,0.));
#316=DIRECTION('',(0.,2.81326872893209E-017,1.));
#317=DIRECTION('',(0.,-1.,0.));
#318=DIRECTION('',(0.,0.,1.));
#319=DIRECTION('',(0.,-1.,0.));
#320=DIRECTION('',(0.,0.,-1.));
#321=DIRECTION('',(0.,-1.,0.));
#322=DIRECTION('',(0.,0.,-1.));
#323=DIRECTION('',(0.,-1.,0.));
#324=DIRECTION('',(0.,0.,1.));
#325=DIRECTION('',(0.,-1.,0.));
#326=DIRECTION('',(0.,0.,-1.));
#327=DIRECTION('',(0.,-1.,0.));
#328=DIRECTION('',(0.,-3.11969453167971E-017,1.));
#329=DIRECTION('',(0.,-1.,0.));
#330=DIRECTION('',(0.,0.,-1.));
#331=DIRECTION('',(0.,-1.,0.));
#332=DIRECTION('',(0.,0.,1.));
#333=DIRECTION('',(0.,-1.,0.));
#334=DIRECTION('',(0.,0.,-1.));
#335=DIRECTION('',(0.,-1.,0.));
#336=DIRECTION('',(0.,0.,1.));
#337=DIRECTION('',(0.,-1.,0.));
#338=DIRECTION('',(0.,0.,-1.));
#339=DIRECTION('',(0.,-1.,0.));
#340=DIRECTION('',(0.,0.,1.));
#341=DIRECTION('',(0.,-1.,0.));
#342=DIRECTION('',(0.,0.,1.));
#343=DIRECTION('',(0.,-1.,0.));
#344=DIRECTION('',(0.,0.,1.));
#345=DIRECTION('',(0.,1.,0.));
#346=DIRECTION('',(0.,0.,-1.));
#347=DIRECTION('',(0.,1.,0.));
#348=DIRECTION('',(0.,0.,-1.));
#349=CARTESIAN_POINT('',(0.,0.,0.));
#350=CARTESIAN_POINT('',(0.,-8.7,0.));
#351=CARTESIAN_POINT('',(0.,-8.7,-1.25));
#352=CARTESIAN_POINT('',(0.,-8.5,0.));
#353=CARTESIAN_POINT('',(0.,-8.5,-1.05));
#354=CARTESIAN_POINT('',(0.,-8.7,0.));
#355=CARTESIAN_POINT('',(0.,-16.5,0.));
#356=CARTESIAN_POINT('',(0.,-16.5,0.800000000000016));
#357=CARTESIAN_POINT('',(0.,-15.4999999999999,0.));
#358=CARTESIAN_POINT('',(0.,-15.4999999999999,0.6));
#359=CARTESIAN_POINT('',(0.,-15.4999999999999,0.));
#360=CARTESIAN_POINT('',(-0.487339717240448,-11.3,-0.35));
#361=CARTESIAN_POINT('',(-0.487339717240448,-11.3352807135156,-0.35));
#362=CARTESIAN_POINT('',(-0.49142930873704,-11.3710383832314,-0.344457079413294));
#363=CARTESIAN_POINT('',(-0.498328388103599,-11.4040729666625,-0.334168845959747));
#364=CARTESIAN_POINT('',(-0.505194360664181,-11.43694902611,-0.323929982941108));
#365=CARTESIAN_POINT('',(-0.51486018544652,-11.4680667221847,-0.308834748219037));
#366=CARTESIAN_POINT('',(-0.525227748636413,-11.4958677817756,-0.290061738363275));
#367=CARTESIAN_POINT('',(-0.536790718351859,-11.5268743745707,-0.269124152504954));
#368=CARTESIAN_POINT('',(-0.549473736773898,-11.5545896580326,-0.2430838058502));
#369=CARTESIAN_POINT('',(-0.560781385653859,-11.577445062122,-0.213364096098986));
#370=CARTESIAN_POINT('',(-0.573202847840933,-11.602551743509,-0.180716968937148));
#371=CARTESIAN_POINT('',(-0.584290847748858,-11.622489511374,-0.142485217936527));
#372=CARTESIAN_POINT('',(-0.591287333180896,-11.6348443076718,-0.101878798676778));
#373=CARTESIAN_POINT('',(-0.597637702172678,-11.6460581544054,-0.0650223300627556));
#374=CARTESIAN_POINT('',(-0.600746597762164,-11.6512806312893,-0.0250113425157648));
#375=CARTESIAN_POINT('',(-0.599836844968149,-11.6497202318731,0.0139914051708985));
#376=CARTESIAN_POINT('',(-0.599033321616766,-11.6483420361954,0.0484399045220825));
#377=CARTESIAN_POINT('',(-0.595122152329426,-11.6416950493141,0.0830335686150902));
#378=CARTESIAN_POINT('',(-0.588864042558021,-11.6305463063139,0.115061459152167));
#379=CARTESIAN_POINT('',(-0.582552572401816,-11.6193025024665,0.147362438629157));
#380=CARTESIAN_POINT('',(-0.573751256441184,-11.6032745242795,0.177869574019711));
#381=CARTESIAN_POINT('',(-0.563923305650936,-11.583741950822,0.20491584942049));
#382=CARTESIAN_POINT('',(-0.552949525314873,-11.5619320969577,0.235115419146799));
#383=CARTESIAN_POINT('',(-0.540441904034356,-11.5352494491302,0.261782633915892));
#384=CARTESIAN_POINT('',(-0.528794721709437,-11.5052409747291,0.283506864629833));
#385=CARTESIAN_POINT('',(-0.515929980410639,-11.4720955109447,0.307502076540642));
#386=CARTESIAN_POINT('',(-0.503773674668813,-11.4337364063296,0.326184355576727));
#387=CARTESIAN_POINT('',(-0.496142597953184,-11.393045566814,0.337405575674537));
#388=CARTESIAN_POINT('',(-0.490550088648875,-11.3632248865782,0.345629156715751));
#389=CARTESIAN_POINT('',(-0.487339717240448,-11.3314352734231,0.35));
#390=CARTESIAN_POINT('',(-0.487339717240448,-11.3,0.35));
#391=CARTESIAN_POINT('',(-0.487339717240448,-11.2647192864844,0.35));
#392=CARTESIAN_POINT('',(-0.49142930873704,-11.2289616167686,0.344457079413293));
#393=CARTESIAN_POINT('',(-0.498328388103599,-11.1959270333375,0.334168845959747));
#394=CARTESIAN_POINT('',(-0.505194360664182,-11.16305097389,0.323929982941107));
#395=CARTESIAN_POINT('',(-0.514860185446521,-11.1319332778153,0.308834748219036));
#396=CARTESIAN_POINT('',(-0.525227748636414,-11.1041322182244,0.290061738363274));
#397=CARTESIAN_POINT('',(-0.53679071835186,-11.0731256254293,0.269124152504952));
#398=CARTESIAN_POINT('',(-0.549473736773899,-11.0454103419674,0.243083805850199));
#399=CARTESIAN_POINT('',(-0.56078138565386,-11.022554937878,0.213364096098985));
#400=CARTESIAN_POINT('',(-0.573202847840934,-10.997448256491,0.180716968937147));
#401=CARTESIAN_POINT('',(-0.584290847748859,-10.977510488626,0.142485217936526));
#402=CARTESIAN_POINT('',(-0.591287333180897,-10.9651556923282,0.101878798676777));
#403=CARTESIAN_POINT('',(-0.597637702172678,-10.9539418455946,0.0650223300627537));
#404=CARTESIAN_POINT('',(-0.600746597762164,-10.9487193687107,0.0250113425157627));
#405=CARTESIAN_POINT('',(-0.599836844968149,-10.9502797681269,-0.0139914051709006));
#406=CARTESIAN_POINT('',(-0.599033321616766,-10.9516579638046,-0.0484399045220846));
#407=CARTESIAN_POINT('',(-0.595122152329426,-10.9583049506859,-0.0830335686150921));
#408=CARTESIAN_POINT('',(-0.58886404255802,-10.9694536936861,-0.115061459152169));
#409=CARTESIAN_POINT('',(-0.582552572401816,-10.9806974975335,-0.147362438629158));
#410=CARTESIAN_POINT('',(-0.573751256441183,-10.9967254757205,-0.177869574019713));
#411=CARTESIAN_POINT('',(-0.563923305650936,-11.016258049178,-0.204915849420491));
#412=CARTESIAN_POINT('',(-0.552949525314872,-11.0380679030423,-0.235115419146801));
#413=CARTESIAN_POINT('',(-0.540441904034356,-11.0647505508698,-0.261782633915894));
#414=CARTESIAN_POINT('',(-0.528794721709437,-11.0947590252709,-0.283506864629835));
#415=CARTESIAN_POINT('',(-0.515929980410639,-11.1279044890553,-0.307502076540643));
#416=CARTESIAN_POINT('',(-0.503773674668812,-11.1662635936704,-0.326184355576728));
#417=CARTESIAN_POINT('',(-0.496142597953183,-11.206954433186,-0.337405575674537));
#418=CARTESIAN_POINT('',(-0.490550088648875,-11.2367751134218,-0.345629156715751));
#419=CARTESIAN_POINT('',(-0.487339717240448,-11.2685647265769,-0.35));
#420=CARTESIAN_POINT('',(-0.487339717240448,-11.3,-0.35));
#421=CARTESIAN_POINT('',(-0.487339717240448,-11.3,-0.35));
#422=CARTESIAN_POINT('',(-0.82915619758885,-11.3,0.35));
#423=CARTESIAN_POINT('',(-0.82915619758885,-11.3374899387963,0.35));
#424=CARTESIAN_POINT('',(-0.831850766509799,-11.3754911758394,0.343780081150461));
#425=CARTESIAN_POINT('',(-0.836523419452026,-11.410776492505,0.332006880513476));
#426=CARTESIAN_POINT('',(-0.841187091316275,-11.445993988987,0.320256308570359));
#427=CARTESIAN_POINT('',(-0.847876398258517,-11.4794725705944,0.302717494974963));
#428=CARTESIAN_POINT('',(-0.855074486547838,-11.5089315140065,0.280798188126188));
#429=CARTESIAN_POINT('',(-0.862624584310616,-11.5398310937018,0.257806957267563));
#430=CARTESIAN_POINT('',(-0.87089089030775,-11.567158832495,0.229380011538013));
#431=CARTESIAN_POINT('',(-0.878057006738776,-11.5889361643738,0.197524410939361));
#432=CARTESIAN_POINT('',(-0.885483009659911,-11.6115032733098,0.164513534633205));
#433=CARTESIAN_POINT('',(-0.891892435669289,-11.6287249979905,0.126804237441));
#434=CARTESIAN_POINT('',(-0.895726355693748,-11.6388594166973,0.0876030576840639));
#435=CARTESIAN_POINT('',(-0.899382228994834,-11.6485231943806,0.0502223753719304));
#436=CARTESIAN_POINT('',(-0.900769891621689,-11.651986810319,0.010386650048238));
#437=CARTESIAN_POINT('',(-0.899556515714981,-11.6488580298134,-0.0282502218526257));
#438=CARTESIAN_POINT('',(-0.898407164727498,-11.6458943423495,-0.0648483829229074));
#439=CARTESIAN_POINT('',(-0.894918791825966,-11.6369724629408,-0.101356691428074));
#440=CARTESIAN_POINT('',(-0.889828588767593,-11.6229472362293,-0.134926211730239));
#441=CARTESIAN_POINT('',(-0.884660023782925,-11.6087060959738,-0.169012523257728));
#442=CARTESIAN_POINT('',(-0.877742571225319,-11.5888778120841,-0.200967836015007));
#443=CARTESIAN_POINT('',(-0.870466628243395,-11.5649757552785,-0.228665364921266));
#444=CARTESIAN_POINT('',(-0.862735739058128,-11.5395791636721,-0.258094749842499));
#445=CARTESIAN_POINT('',(-0.854425948581922,-11.508892506946,-0.28352431958902));
#446=CARTESIAN_POINT('',(-0.847445765699952,-11.4751123233892,-0.303044013630399));
#447=CARTESIAN_POINT('',(-0.840293899384673,-11.4405012879782,-0.323043810864894));
#448=CARTESIAN_POINT('',(-0.834405513039754,-11.4015537972369,-0.3373827833301));
#449=CARTESIAN_POINT('',(-0.831447704283855,-11.3616869918126,-0.344520993614478));
#450=CARTESIAN_POINT('',(-0.829943083734508,-11.3414069738573,-0.348152160726962));
#451=CARTESIAN_POINT('',(-0.82915619758885,-11.3206574051097,-0.35));
#452=CARTESIAN_POINT('',(-0.82915619758885,-11.3,-0.35));
#453=CARTESIAN_POINT('',(-0.82915619758885,-11.2625100612037,-0.35));
#454=CARTESIAN_POINT('',(-0.831850766509799,-11.2245088241606,-0.343780081150461));
#455=CARTESIAN_POINT('',(-0.836523419452026,-11.189223507495,-0.332006880513476));
#456=CARTESIAN_POINT('',(-0.841187091316275,-11.154006011013,-0.320256308570359));
#457=CARTESIAN_POINT('',(-0.847876398258517,-11.1205274294056,-0.302717494974963));
#458=CARTESIAN_POINT('',(-0.855074486547838,-11.0910684859935,-0.280798188126188));
#459=CARTESIAN_POINT('',(-0.862624584310616,-11.0601689062983,-0.257806957267563));
#460=CARTESIAN_POINT('',(-0.87089089030775,-11.032841167505,-0.229380011538013));
#461=CARTESIAN_POINT('',(-0.878057006738776,-11.0110638356262,-0.197524410939361));
#462=CARTESIAN_POINT('',(-0.885483009659911,-10.9884967266902,-0.164513534633205));
#463=CARTESIAN_POINT('',(-0.891892435669289,-10.9712750020095,-0.126804237441));
#464=CARTESIAN_POINT('',(-0.895726355693748,-10.9611405833027,-0.0876030576840639));
#465=CARTESIAN_POINT('',(-0.899382228994834,-10.9514768056194,-0.0502223753719304));
#466=CARTESIAN_POINT('',(-0.900769891621689,-10.948013189681,-0.010386650048238));
#467=CARTESIAN_POINT('',(-0.899556515714981,-10.9511419701866,0.0282502218526257));
#468=CARTESIAN_POINT('',(-0.898407164727498,-10.9541056576505,0.0648483829229074));
#469=CARTESIAN_POINT('',(-0.894918791825966,-10.9630275370592,0.101356691428074));
#470=CARTESIAN_POINT('',(-0.889828588767593,-10.9770527637707,0.134926211730239));
#471=CARTESIAN_POINT('',(-0.884660023782925,-10.9912939040262,0.169012523257728));
#472=CARTESIAN_POINT('',(-0.877742571225319,-11.0111221879159,0.200967836015007));
#473=CARTESIAN_POINT('',(-0.870466628243395,-11.0350242447215,0.228665364921266));
#474=CARTESIAN_POINT('',(-0.862735739058128,-11.0604208363279,0.258094749842499));
#475=CARTESIAN_POINT('',(-0.854425948581922,-11.091107493054,0.28352431958902));
#476=CARTESIAN_POINT('',(-0.847445765699952,-11.1248876766108,0.303044013630399));
#477=CARTESIAN_POINT('',(-0.840293899384673,-11.1594987120218,0.323043810864894));
#478=CARTESIAN_POINT('',(-0.834405513039754,-11.1984462027631,0.3373827833301));
#479=CARTESIAN_POINT('',(-0.831447704283855,-11.2383130081874,0.344520993614478));
#480=CARTESIAN_POINT('',(-0.829943083734508,-11.2585930261427,0.348152160726962));
#481=CARTESIAN_POINT('',(-0.82915619758885,-11.2793425948903,0.35));
#482=CARTESIAN_POINT('',(-0.82915619758885,-11.3,0.35));
#483=CARTESIAN_POINT('',(-0.82915619758885,-11.3,0.35));
#484=CARTESIAN_POINT('',(-10.,-11.3,0.));
#485=CARTESIAN_POINT('',(0.,-0.7,0.));
#486=CARTESIAN_POINT('',(0.,-0.7,-0.799999999999999));
#487=CARTESIAN_POINT('',(0.,0.,0.));
#488=CARTESIAN_POINT('',(0.,0.,-0.0999999999999995));
#489=CARTESIAN_POINT('',(0.,-0.7,0.799999999999999));
#490=CARTESIAN_POINT('',(-1.6,-0.7,0.799999999999999));
#491=CARTESIAN_POINT('',(-1.6,-0.7,-0.799999999999999));
#492=CARTESIAN_POINT('',(0.,-0.7,-0.799999999999999));
#493=CARTESIAN_POINT('',(1.6,-0.7,-0.799999999999999));
#494=CARTESIAN_POINT('',(1.6,-0.7,0.799999999999999));
#495=CARTESIAN_POINT('',(0.,-0.7,0.799999999999999));
#496=CARTESIAN_POINT('',(0.,-0.289949493661166,0.799999999999999));
#497=CARTESIAN_POINT('',(-1.6,-0.289949493661166,0.799999999999999));
#498=CARTESIAN_POINT('',(-1.6,-0.289949493661166,-0.799999999999999));
#499=CARTESIAN_POINT('',(0.,-0.289949493661166,-0.799999999999999));
#500=CARTESIAN_POINT('',(1.6,-0.289949493661166,-0.799999999999999));
#501=CARTESIAN_POINT('',(1.6,-0.289949493661166,0.799999999999999));
#502=CARTESIAN_POINT('',(0.,-0.289949493661166,0.799999999999999));
#503=CARTESIAN_POINT('',(0.,-6.59411506754851E-017,0.510050506338833));
#504=CARTESIAN_POINT('',(-1.02010101267767,-6.59411506754851E-017,0.510050506338833));
#505=CARTESIAN_POINT('',(-1.02010101267767,-6.59411506754851E-017,-0.510050506338833));
#506=CARTESIAN_POINT('',(0.,-6.59411506754851E-017,-0.510050506338833));
#507=CARTESIAN_POINT('',(1.02010101267767,-6.59411506754851E-017,-0.510050506338833));
#508=CARTESIAN_POINT('',(1.02010101267767,-6.59411506754851E-017,0.510050506338833));
#509=CARTESIAN_POINT('',(0.,-6.59411506754851E-017,0.510050506338833));
#510=CARTESIAN_POINT('',(0.,0.,0.0999999999999996));
#511=CARTESIAN_POINT('',(-0.199999999999999,0.,0.0999999999999996));
#512=CARTESIAN_POINT('',(-0.199999999999999,0.,-0.0999999999999996));
#513=CARTESIAN_POINT('',(0.,0.,-0.0999999999999996));
#514=CARTESIAN_POINT('',(0.199999999999999,0.,-0.0999999999999996));
#515=CARTESIAN_POINT('',(0.199999999999999,0.,0.0999999999999996));
#516=CARTESIAN_POINT('',(0.,0.,0.0999999999999996));
#517=CARTESIAN_POINT('',(0.,-10.5,0.));
#518=CARTESIAN_POINT('',(0.,-10.5,-0.6));
#519=CARTESIAN_POINT('',(0.,-10.1394836285835,1.8094588425322E-018));
#520=CARTESIAN_POINT('',(0.,-10.5,0.));
#521=CARTESIAN_POINT('',(0.,0.,0.));
#522=CARTESIAN_POINT('',(0.,-16.5,0.));
#523=CARTESIAN_POINT('',(0.,-16.5,-0.999999999999999));
#524=CARTESIAN_POINT('',(0.,-11.9,0.));
#525=CARTESIAN_POINT('',(0.,-11.9,-1.));
#526=CARTESIAN_POINT('',(0.,0.,0.));
#527=CARTESIAN_POINT('',(0.,-11.8,0.));
#528=CARTESIAN_POINT('',(0.,-11.8,-0.9));
#529=CARTESIAN_POINT('',(0.,-11.8,0.));
#530=CARTESIAN_POINT('',(0.,-10.8,0.));
#531=CARTESIAN_POINT('',(0.,-10.8,-0.9));
#532=CARTESIAN_POINT('',(0.,0.,0.));
#533=CARTESIAN_POINT('',(0.,-10.8,0.));
#534=CARTESIAN_POINT('',(0.,-10.8,-1.25));
#535=CARTESIAN_POINT('',(0.,0.,0.));
#536=CARTESIAN_POINT('',(0.,-8.5,0.));
#537=CARTESIAN_POINT('',(0.,-8.5,-0.799999999999999));
#538=CARTESIAN_POINT('',(0.,0.,0.));
#539=CARTESIAN_POINT('',(0.,-4.89858719658941E-017,0.));
#540=CARTESIAN_POINT('',(0.,-8.5,0.799999999999999));
#541=CARTESIAN_POINT('',(0.,-10.8,1.25));
#542=CARTESIAN_POINT('',(0.,-16.5,0.999999999999999));
#543=(
GEOMETRIC_REPRESENTATION_CONTEXT(3)
GLOBAL_UNCERTAINTY_ASSIGNED_CONTEXT((#544))
GLOBAL_UNIT_ASSIGNED_CONTEXT((#550,#546,#545))
REPRESENTATION_CONTEXT('FM10S-005-0','TOP_LEVEL_ASSEMBLY_PART')
);
#544=UNCERTAINTY_MEASURE_WITH_UNIT(LENGTH_MEASURE(0.0508),#550,
'DISTANCE_ACCURACY_VALUE','Maximum Tolerance applied to model');
#545=(
NAMED_UNIT(*)
SI_UNIT($,.STERADIAN.)
SOLID_ANGLE_UNIT()
);
#546=(
CONVERSION_BASED_UNIT('DEGREE',#548)
NAMED_UNIT(#547)
PLANE_ANGLE_UNIT()
);
#547=DIMENSIONAL_EXPONENTS(0.,0.,0.,0.,0.,0.,0.);
#548=PLANE_ANGLE_MEASURE_WITH_UNIT(PLANE_ANGLE_MEASURE(0.0174532925),#549);
#549=(
NAMED_UNIT(*)
PLANE_ANGLE_UNIT()
SI_UNIT($,.RADIAN.)
);
#550=(
LENGTH_UNIT()
NAMED_UNIT(*)
SI_UNIT(.MILLI.,.METRE.)
);
ENDSEC;
END-ISO-10303-21;
