ISO-10303-21;
HEADER;
/* Generated by software containing ST-Developer
 * from STEP Tools, Inc. (www.steptools.com) 
 */
/* OPTION: using custom schema-name function */

FILE_DESCRIPTION(
/* description */ (''),
/* implementation_level */ '2;1');

FILE_NAME(
/* name */ 'DAOXIANGKONG.stp',
/* time_stamp */ '2023-07-31T14:10:28+08:00',
/* author */ (''),
/* organization */ (''),
/* preprocessor_version */ 'ST-DEVELOPER v11',
/* originating_system */ 'SIEMENS PLM Software NX 7.5',
/* authorisation */ '');

FILE_SCHEMA (('CONFIG_CONTROL_DESIGN'));
ENDSEC;

DATA;
#10=SHAPE_REPRESENTATION_RELATIONSHIP('None',
'relationship between fang57B4my3u-None and fang57B4my3u-None',#94,#11);
#11=ADVANCED_BREP_SHAPE_REPRESENTATION('fang57B4my3u-None',(#95),#713);
#12=CC_DESIGN_APPROVAL(#24,(#82));
#13=CC_DESIGN_APPROVAL(#25,(#84));
#14=CC_DESIGN_APPROVAL(#26,(#31));
#15=APPROVAL_PERSON_ORGANIZATION(#69,#24,#18);
#16=APPROVAL_PERSON_ORGANIZATION(#70,#25,#19);
#17=APPROVAL_PERSON_ORGANIZATION(#71,#26,#20);
#18=APPROVAL_ROLE('approver');
#19=APPROVAL_ROLE('approver');
#20=APPROVAL_ROLE('approver');
#21=APPROVAL_DATE_TIME(#39,#24);
#22=APPROVAL_DATE_TIME(#40,#25);
#23=APPROVAL_DATE_TIME(#41,#26);
#24=APPROVAL(#27,' ');
#25=APPROVAL(#28,' ');
#26=APPROVAL(#29,' ');
#27=APPROVAL_STATUS('not_yet_approved');
#28=APPROVAL_STATUS('not_yet_approved');
#29=APPROVAL_STATUS('not_yet_approved');
#30=CC_DESIGN_SECURITY_CLASSIFICATION(#31,(#84));
#31=SECURITY_CLASSIFICATION(' ',' ',#32);
#32=SECURITY_CLASSIFICATION_LEVEL('confidential');
#33=CC_DESIGN_DATE_AND_TIME_ASSIGNMENT(#37,#35,(#82));
#34=CC_DESIGN_DATE_AND_TIME_ASSIGNMENT(#38,#36,(#31));
#35=DATE_TIME_ROLE('creation_date');
#36=DATE_TIME_ROLE('classification_date');
#37=DATE_AND_TIME(#52,#42);
#38=DATE_AND_TIME(#53,#43);
#39=DATE_AND_TIME(#54,#44);
#40=DATE_AND_TIME(#55,#45);
#41=DATE_AND_TIME(#56,#46);
#42=LOCAL_TIME(0,0,0.,#47);
#43=LOCAL_TIME(0,0,0.,#48);
#44=LOCAL_TIME(0,0,0.,#49);
#45=LOCAL_TIME(0,0,0.,#50);
#46=LOCAL_TIME(0,0,0.,#51);
#47=COORDINATED_UNIVERSAL_TIME_OFFSET(0,0,.BEHIND.);
#48=COORDINATED_UNIVERSAL_TIME_OFFSET(0,0,.BEHIND.);
#49=COORDINATED_UNIVERSAL_TIME_OFFSET(0,0,.BEHIND.);
#50=COORDINATED_UNIVERSAL_TIME_OFFSET(0,0,.BEHIND.);
#51=COORDINATED_UNIVERSAL_TIME_OFFSET(0,0,.BEHIND.);
#52=CALENDAR_DATE(0,1,1);
#53=CALENDAR_DATE(0,1,1);
#54=CALENDAR_DATE(0,1,1);
#55=CALENDAR_DATE(0,1,1);
#56=CALENDAR_DATE(0,1,1);
#57=CC_DESIGN_PERSON_AND_ORGANIZATION_ASSIGNMENT(#65,#61,(#82,#84));
#58=CC_DESIGN_PERSON_AND_ORGANIZATION_ASSIGNMENT(#66,#62,(#86));
#59=CC_DESIGN_PERSON_AND_ORGANIZATION_ASSIGNMENT(#67,#63,(#84));
#60=CC_DESIGN_PERSON_AND_ORGANIZATION_ASSIGNMENT(#68,#64,(#31));
#61=PERSON_AND_ORGANIZATION_ROLE('creator');
#62=PERSON_AND_ORGANIZATION_ROLE('design_owner');
#63=PERSON_AND_ORGANIZATION_ROLE('design_supplier');
#64=PERSON_AND_ORGANIZATION_ROLE('classification_officer');
#65=PERSON_AND_ORGANIZATION(#79,#72);
#66=PERSON_AND_ORGANIZATION(#79,#73);
#67=PERSON_AND_ORGANIZATION(#79,#74);
#68=PERSON_AND_ORGANIZATION(#79,#75);
#69=PERSON_AND_ORGANIZATION(#79,#76);
#70=PERSON_AND_ORGANIZATION(#79,#77);
#71=PERSON_AND_ORGANIZATION(#79,#78);
#72=ORGANIZATION(' ',' ',' ');
#73=ORGANIZATION(' ',' ',' ');
#74=ORGANIZATION(' ',' ',' ');
#75=ORGANIZATION(' ',' ',' ');
#76=ORGANIZATION(' ',' ',' ');
#77=ORGANIZATION(' ',' ',' ');
#78=ORGANIZATION(' ',' ',' ');
#79=PERSON(' ',' ',' ',(' '),$,$);
#80=SHAPE_DEFINITION_REPRESENTATION(#81,#94);
#81=PRODUCT_DEFINITION_SHAPE('','',#82);
#82=PRODUCT_DEFINITION(' ','',#84,#83);
#83=DESIGN_CONTEXT('',#93,'design');
#84=PRODUCT_DEFINITION_FORMATION_WITH_SPECIFIED_SOURCE(' ',' ',#86,.NOT_KNOWN.);
#85=PRODUCT_RELATED_PRODUCT_CATEGORY('detail','',(#86));
#86=PRODUCT('fang57B4my3u','fang57B4my3u',' ',(#91));
#87=PRODUCT_CATEGORY_RELATIONSHIP(' ',' ',#89,#90);
#88=PRODUCT_CATEGORY_RELATIONSHIP('','',#90,#85);
#89=PRODUCT_CATEGORY('part',' ');
#90=PRODUCT_CATEGORY(' ','');
#91=MECHANICAL_CONTEXT(' ',#93,'mechanical');
#92=APPLICATION_PROTOCOL_DEFINITION('international standard',
'config_control_design',1994,#93);
#93=APPLICATION_CONTEXT(
'configuration controlled 3D designs of mechanical parts and assemblies');
#94=SHAPE_REPRESENTATION('fang57B4my3u-None',(#436),#713);
#95=MANIFOLD_SOLID_BREP('-1',#96);
#96=CLOSED_SHELL('',(#172,#173,#174,#175,#176,#177,#178,#179,#180,#181,#182,
#183,#184,#185,#186,#187,#188,#189,#190,#191,#192,#193,#194));
#97=B_SPLINE_CURVE_WITH_KNOTS('',3,(#654,#655,#656,#657),.UNSPECIFIED.,.F.,
 .F.,(4,4),(0.,1.),.UNSPECIFIED.);
#98=B_SPLINE_CURVE_WITH_KNOTS('',3,(#658,#659,#660,#661),.UNSPECIFIED.,.F.,
 .F.,(4,4),(0.,1.),.UNSPECIFIED.);
#99=B_SPLINE_CURVE_WITH_KNOTS('',3,(#663,#664,#665,#666),.UNSPECIFIED.,.F.,
 .F.,(4,4),(0.,1.),.UNSPECIFIED.);
#100=B_SPLINE_CURVE_WITH_KNOTS('',3,(#667,#668,#669,#670),.UNSPECIFIED.,
 .F.,.F.,(4,4),(0.,1.),.UNSPECIFIED.);
#101=B_SPLINE_CURVE_WITH_KNOTS('',3,(#685,#686,#687,#688),.UNSPECIFIED.,
 .F.,.F.,(4,4),(0.,1.),.UNSPECIFIED.);
#102=B_SPLINE_CURVE_WITH_KNOTS('',3,(#689,#690,#691,#692),.UNSPECIFIED.,
 .F.,.F.,(4,4),(0.,1.),.UNSPECIFIED.);
#103=B_SPLINE_CURVE_WITH_KNOTS('',3,(#694,#695,#696,#697),.UNSPECIFIED.,
 .F.,.F.,(4,4),(0.,1.),.UNSPECIFIED.);
#104=B_SPLINE_CURVE_WITH_KNOTS('',3,(#698,#699,#700,#701),.UNSPECIFIED.,
 .F.,.F.,(4,4),(0.,1.),.UNSPECIFIED.);
#105=PLANE('',#463);
#106=PLANE('',#466);
#107=PLANE('',#467);
#108=PLANE('',#468);
#109=PLANE('',#471);
#110=PLANE('',#472);
#111=PLANE('',#475);
#112=PLANE('',#476);
#113=PLANE('',#477);
#114=PLANE('',#478);
#115=PLANE('',#479);
#116=PLANE('',#480);
#117=FACE_OUTER_BOUND('',#229,.T.);
#118=FACE_OUTER_BOUND('',#230,.T.);
#119=FACE_OUTER_BOUND('',#231,.T.);
#120=FACE_OUTER_BOUND('',#232,.T.);
#121=FACE_OUTER_BOUND('',#237,.T.);
#122=FACE_OUTER_BOUND('',#238,.T.);
#123=FACE_OUTER_BOUND('',#239,.T.);
#124=FACE_OUTER_BOUND('',#240,.T.);
#125=FACE_OUTER_BOUND('',#241,.T.);
#126=FACE_OUTER_BOUND('',#242,.T.);
#127=FACE_OUTER_BOUND('',#243,.T.);
#128=FACE_OUTER_BOUND('',#244,.T.);
#129=FACE_OUTER_BOUND('',#245,.T.);
#130=FACE_OUTER_BOUND('',#246,.T.);
#131=CYLINDRICAL_SURFACE('',#450,2.25);
#132=CYLINDRICAL_SURFACE('',#456,3.25);
#133=CYLINDRICAL_SURFACE('',#458,1.15);
#134=CYLINDRICAL_SURFACE('',#460,1.5);
#135=LINE('',#606,#151);
#136=LINE('',#610,#152);
#137=LINE('',#614,#153);
#138=LINE('',#618,#154);
#139=LINE('',#625,#155);
#140=LINE('',#629,#156);
#141=LINE('',#633,#157);
#142=LINE('',#637,#158);
#143=LINE('',#645,#159);
#144=LINE('',#650,#160);
#145=LINE('',#675,#161);
#146=LINE('',#680,#162);
#147=LINE('',#703,#163);
#148=LINE('',#705,#164);
#149=LINE('',#708,#165);
#150=LINE('',#709,#166);
#151=VECTOR('',#503,1.);
#152=VECTOR('',#506,1.);
#153=VECTOR('',#509,1.);
#154=VECTOR('',#512,1.);
#155=VECTOR('',#519,1.);
#156=VECTOR('',#522,1.);
#157=VECTOR('',#525,1.);
#158=VECTOR('',#528,1.);
#159=VECTOR('',#539,1.);
#160=VECTOR('',#542,1.);
#161=VECTOR('',#557,1.);
#162=VECTOR('',#560,1.);
#163=VECTOR('',#571,1.);
#164=VECTOR('',#574,1.);
#165=VECTOR('',#579,1.);
#166=VECTOR('',#580,1.);
#167=CONICAL_SURFACE('',#445,1.,44.9999999999999);
#168=CONICAL_SURFACE('',#464,2.75,45.0000000000001);
#169=CONICAL_SURFACE('',#465,3.25,44.9999999999996);
#170=CONICAL_SURFACE('',#473,2.75,45.0000000000001);
#171=CONICAL_SURFACE('',#474,3.25,44.9999999999996);
#172=ADVANCED_FACE('',(#197,#198),#195,.F.);
#173=ADVANCED_FACE('',(#199,#200),#196,.F.);
#174=ADVANCED_FACE('',(#201,#202),#167,.T.);
#175=ADVANCED_FACE('',(#203,#204),#131,.F.);
#176=ADVANCED_FACE('',(#205,#206),#132,.T.);
#177=ADVANCED_FACE('',(#207,#208),#133,.T.);
#178=ADVANCED_FACE('',(#209,#210),#134,.T.);
#179=ADVANCED_FACE('',(#117),#105,.T.);
#180=ADVANCED_FACE('',(#118),#168,.F.);
#181=ADVANCED_FACE('',(#119),#169,.T.);
#182=ADVANCED_FACE('',(#120),#106,.T.);
#183=ADVANCED_FACE('',(#211,#212),#107,.T.);
#184=ADVANCED_FACE('',(#213,#214),#108,.T.);
#185=ADVANCED_FACE('',(#121),#109,.T.);
#186=ADVANCED_FACE('',(#122),#110,.T.);
#187=ADVANCED_FACE('',(#123),#170,.F.);
#188=ADVANCED_FACE('',(#124),#171,.T.);
#189=ADVANCED_FACE('',(#125),#111,.F.);
#190=ADVANCED_FACE('',(#126),#112,.F.);
#191=ADVANCED_FACE('',(#127),#113,.T.);
#192=ADVANCED_FACE('',(#128),#114,.T.);
#193=ADVANCED_FACE('',(#129),#115,.F.);
#194=ADVANCED_FACE('',(#130),#116,.F.);
#195=TOROIDAL_SURFACE('',#439,1.75,0.5);
#196=TOROIDAL_SURFACE('',#442,1.45,0.3);
#197=FACE_BOUND('',#215,.T.);
#198=FACE_BOUND('',#216,.T.);
#199=FACE_BOUND('',#217,.T.);
#200=FACE_BOUND('',#218,.T.);
#201=FACE_BOUND('',#219,.T.);
#202=FACE_BOUND('',#220,.T.);
#203=FACE_BOUND('',#221,.T.);
#204=FACE_BOUND('',#222,.T.);
#205=FACE_BOUND('',#223,.T.);
#206=FACE_BOUND('',#224,.T.);
#207=FACE_BOUND('',#225,.T.);
#208=FACE_BOUND('',#226,.T.);
#209=FACE_BOUND('',#227,.T.);
#210=FACE_BOUND('',#228,.T.);
#211=FACE_BOUND('',#233,.T.);
#212=FACE_BOUND('',#234,.T.);
#213=FACE_BOUND('',#235,.T.);
#214=FACE_BOUND('',#236,.T.);
#215=EDGE_LOOP('',(#247));
#216=EDGE_LOOP('',(#248));
#217=EDGE_LOOP('',(#249));
#218=EDGE_LOOP('',(#250));
#219=EDGE_LOOP('',(#251));
#220=EDGE_LOOP('',(#252));
#221=EDGE_LOOP('',(#253));
#222=EDGE_LOOP('',(#254,#255,#256,#257,#258,#259,#260,#261));
#223=EDGE_LOOP('',(#262));
#224=EDGE_LOOP('',(#263,#264,#265,#266,#267,#268,#269,#270));
#225=EDGE_LOOP('',(#271));
#226=EDGE_LOOP('',(#272));
#227=EDGE_LOOP('',(#273));
#228=EDGE_LOOP('',(#274));
#229=EDGE_LOOP('',(#275,#276,#277,#278));
#230=EDGE_LOOP('',(#279,#280,#281,#282));
#231=EDGE_LOOP('',(#283,#284,#285,#286));
#232=EDGE_LOOP('',(#287));
#233=EDGE_LOOP('',(#288));
#234=EDGE_LOOP('',(#289));
#235=EDGE_LOOP('',(#290));
#236=EDGE_LOOP('',(#291));
#237=EDGE_LOOP('',(#292,#293,#294,#295));
#238=EDGE_LOOP('',(#296));
#239=EDGE_LOOP('',(#297,#298,#299,#300));
#240=EDGE_LOOP('',(#301,#302,#303,#304));
#241=EDGE_LOOP('',(#305,#306,#307,#308,#309,#310));
#242=EDGE_LOOP('',(#311,#312,#313,#314,#315,#316));
#243=EDGE_LOOP('',(#317,#318,#319,#320));
#244=EDGE_LOOP('',(#321,#322,#323,#324));
#245=EDGE_LOOP('',(#325,#326,#327,#328,#329,#330));
#246=EDGE_LOOP('',(#331,#332,#333,#334,#335,#336));
#247=ORIENTED_EDGE('',*,*,#370,.F.);
#248=ORIENTED_EDGE('',*,*,#371,.F.);
#249=ORIENTED_EDGE('',*,*,#372,.F.);
#250=ORIENTED_EDGE('',*,*,#373,.F.);
#251=ORIENTED_EDGE('',*,*,#374,.F.);
#252=ORIENTED_EDGE('',*,*,#375,.F.);
#253=ORIENTED_EDGE('',*,*,#370,.T.);
#254=ORIENTED_EDGE('',*,*,#376,.T.);
#255=ORIENTED_EDGE('',*,*,#377,.F.);
#256=ORIENTED_EDGE('',*,*,#378,.T.);
#257=ORIENTED_EDGE('',*,*,#379,.F.);
#258=ORIENTED_EDGE('',*,*,#380,.T.);
#259=ORIENTED_EDGE('',*,*,#381,.F.);
#260=ORIENTED_EDGE('',*,*,#382,.T.);
#261=ORIENTED_EDGE('',*,*,#383,.F.);
#262=ORIENTED_EDGE('',*,*,#384,.F.);
#263=ORIENTED_EDGE('',*,*,#385,.T.);
#264=ORIENTED_EDGE('',*,*,#386,.F.);
#265=ORIENTED_EDGE('',*,*,#387,.T.);
#266=ORIENTED_EDGE('',*,*,#388,.F.);
#267=ORIENTED_EDGE('',*,*,#389,.T.);
#268=ORIENTED_EDGE('',*,*,#390,.F.);
#269=ORIENTED_EDGE('',*,*,#391,.T.);
#270=ORIENTED_EDGE('',*,*,#392,.F.);
#271=ORIENTED_EDGE('',*,*,#393,.F.);
#272=ORIENTED_EDGE('',*,*,#373,.T.);
#273=ORIENTED_EDGE('',*,*,#374,.T.);
#274=ORIENTED_EDGE('',*,*,#394,.T.);
#275=ORIENTED_EDGE('',*,*,#395,.F.);
#276=ORIENTED_EDGE('',*,*,#396,.T.);
#277=ORIENTED_EDGE('',*,*,#397,.F.);
#278=ORIENTED_EDGE('',*,*,#398,.T.);
#279=ORIENTED_EDGE('',*,*,#399,.F.);
#280=ORIENTED_EDGE('',*,*,#398,.F.);
#281=ORIENTED_EDGE('',*,*,#400,.F.);
#282=ORIENTED_EDGE('',*,*,#378,.F.);
#283=ORIENTED_EDGE('',*,*,#401,.F.);
#284=ORIENTED_EDGE('',*,*,#391,.F.);
#285=ORIENTED_EDGE('',*,*,#402,.F.);
#286=ORIENTED_EDGE('',*,*,#396,.F.);
#287=ORIENTED_EDGE('',*,*,#375,.T.);
#288=ORIENTED_EDGE('',*,*,#393,.T.);
#289=ORIENTED_EDGE('',*,*,#394,.F.);
#290=ORIENTED_EDGE('',*,*,#372,.T.);
#291=ORIENTED_EDGE('',*,*,#384,.T.);
#292=ORIENTED_EDGE('',*,*,#403,.F.);
#293=ORIENTED_EDGE('',*,*,#404,.T.);
#294=ORIENTED_EDGE('',*,*,#405,.F.);
#295=ORIENTED_EDGE('',*,*,#406,.T.);
#296=ORIENTED_EDGE('',*,*,#371,.T.);
#297=ORIENTED_EDGE('',*,*,#407,.F.);
#298=ORIENTED_EDGE('',*,*,#406,.F.);
#299=ORIENTED_EDGE('',*,*,#408,.F.);
#300=ORIENTED_EDGE('',*,*,#382,.F.);
#301=ORIENTED_EDGE('',*,*,#409,.F.);
#302=ORIENTED_EDGE('',*,*,#387,.F.);
#303=ORIENTED_EDGE('',*,*,#410,.F.);
#304=ORIENTED_EDGE('',*,*,#404,.F.);
#305=ORIENTED_EDGE('',*,*,#383,.T.);
#306=ORIENTED_EDGE('',*,*,#408,.T.);
#307=ORIENTED_EDGE('',*,*,#405,.T.);
#308=ORIENTED_EDGE('',*,*,#410,.T.);
#309=ORIENTED_EDGE('',*,*,#386,.T.);
#310=ORIENTED_EDGE('',*,*,#411,.F.);
#311=ORIENTED_EDGE('',*,*,#377,.T.);
#312=ORIENTED_EDGE('',*,*,#412,.F.);
#313=ORIENTED_EDGE('',*,*,#392,.T.);
#314=ORIENTED_EDGE('',*,*,#401,.T.);
#315=ORIENTED_EDGE('',*,*,#395,.T.);
#316=ORIENTED_EDGE('',*,*,#399,.T.);
#317=ORIENTED_EDGE('',*,*,#412,.T.);
#318=ORIENTED_EDGE('',*,*,#376,.F.);
#319=ORIENTED_EDGE('',*,*,#411,.T.);
#320=ORIENTED_EDGE('',*,*,#385,.F.);
#321=ORIENTED_EDGE('',*,*,#413,.T.);
#322=ORIENTED_EDGE('',*,*,#380,.F.);
#323=ORIENTED_EDGE('',*,*,#414,.T.);
#324=ORIENTED_EDGE('',*,*,#389,.F.);
#325=ORIENTED_EDGE('',*,*,#381,.T.);
#326=ORIENTED_EDGE('',*,*,#413,.F.);
#327=ORIENTED_EDGE('',*,*,#388,.T.);
#328=ORIENTED_EDGE('',*,*,#409,.T.);
#329=ORIENTED_EDGE('',*,*,#403,.T.);
#330=ORIENTED_EDGE('',*,*,#407,.T.);
#331=ORIENTED_EDGE('',*,*,#379,.T.);
#332=ORIENTED_EDGE('',*,*,#400,.T.);
#333=ORIENTED_EDGE('',*,*,#397,.T.);
#334=ORIENTED_EDGE('',*,*,#402,.T.);
#335=ORIENTED_EDGE('',*,*,#390,.T.);
#336=ORIENTED_EDGE('',*,*,#414,.F.);
#337=VERTEX_POINT('',#589);
#338=VERTEX_POINT('',#591);
#339=VERTEX_POINT('',#594);
#340=VERTEX_POINT('',#596);
#341=VERTEX_POINT('',#599);
#342=VERTEX_POINT('',#601);
#343=VERTEX_POINT('',#604);
#344=VERTEX_POINT('',#605);
#345=VERTEX_POINT('',#607);
#346=VERTEX_POINT('',#609);
#347=VERTEX_POINT('',#611);
#348=VERTEX_POINT('',#613);
#349=VERTEX_POINT('',#615);
#350=VERTEX_POINT('',#617);
#351=VERTEX_POINT('',#621);
#352=VERTEX_POINT('',#623);
#353=VERTEX_POINT('',#624);
#354=VERTEX_POINT('',#626);
#355=VERTEX_POINT('',#628);
#356=VERTEX_POINT('',#630);
#357=VERTEX_POINT('',#632);
#358=VERTEX_POINT('',#634);
#359=VERTEX_POINT('',#636);
#360=VERTEX_POINT('',#640);
#361=VERTEX_POINT('',#643);
#362=VERTEX_POINT('',#646);
#363=VERTEX_POINT('',#647);
#364=VERTEX_POINT('',#649);
#365=VERTEX_POINT('',#651);
#366=VERTEX_POINT('',#676);
#367=VERTEX_POINT('',#677);
#368=VERTEX_POINT('',#679);
#369=VERTEX_POINT('',#681);
#370=EDGE_CURVE('',#337,#337,#415,.T.);
#371=EDGE_CURVE('',#338,#338,#416,.T.);
#372=EDGE_CURVE('',#339,#339,#417,.T.);
#373=EDGE_CURVE('',#340,#340,#418,.T.);
#374=EDGE_CURVE('',#341,#341,#419,.T.);
#375=EDGE_CURVE('',#342,#342,#420,.T.);
#376=EDGE_CURVE('',#343,#344,#421,.T.);
#377=EDGE_CURVE('',#345,#344,#135,.T.);
#378=EDGE_CURVE('',#345,#346,#422,.T.);
#379=EDGE_CURVE('',#347,#346,#136,.T.);
#380=EDGE_CURVE('',#347,#348,#423,.T.);
#381=EDGE_CURVE('',#349,#348,#137,.T.);
#382=EDGE_CURVE('',#349,#350,#424,.T.);
#383=EDGE_CURVE('',#343,#350,#138,.T.);
#384=EDGE_CURVE('',#351,#351,#425,.T.);
#385=EDGE_CURVE('',#352,#353,#426,.T.);
#386=EDGE_CURVE('',#354,#353,#139,.T.);
#387=EDGE_CURVE('',#354,#355,#427,.T.);
#388=EDGE_CURVE('',#356,#355,#140,.T.);
#389=EDGE_CURVE('',#356,#357,#428,.T.);
#390=EDGE_CURVE('',#358,#357,#141,.T.);
#391=EDGE_CURVE('',#358,#359,#429,.T.);
#392=EDGE_CURVE('',#352,#359,#142,.T.);
#393=EDGE_CURVE('',#360,#360,#430,.T.);
#394=EDGE_CURVE('',#361,#361,#431,.T.);
#395=EDGE_CURVE('',#362,#363,#143,.T.);
#396=EDGE_CURVE('',#362,#364,#432,.T.);
#397=EDGE_CURVE('',#365,#364,#144,.T.);
#398=EDGE_CURVE('',#365,#363,#433,.T.);
#399=EDGE_CURVE('',#363,#345,#97,.T.);
#400=EDGE_CURVE('',#346,#365,#98,.T.);
#401=EDGE_CURVE('',#359,#362,#99,.T.);
#402=EDGE_CURVE('',#364,#358,#100,.T.);
#403=EDGE_CURVE('',#366,#367,#145,.T.);
#404=EDGE_CURVE('',#366,#368,#434,.T.);
#405=EDGE_CURVE('',#369,#368,#146,.T.);
#406=EDGE_CURVE('',#369,#367,#435,.T.);
#407=EDGE_CURVE('',#367,#349,#101,.T.);
#408=EDGE_CURVE('',#350,#369,#102,.T.);
#409=EDGE_CURVE('',#355,#366,#103,.T.);
#410=EDGE_CURVE('',#368,#354,#104,.T.);
#411=EDGE_CURVE('',#343,#353,#147,.T.);
#412=EDGE_CURVE('',#352,#344,#148,.T.);
#413=EDGE_CURVE('',#356,#348,#149,.T.);
#414=EDGE_CURVE('',#347,#357,#150,.T.);
#415=CIRCLE('',#437,2.25);
#416=CIRCLE('',#438,1.75);
#417=CIRCLE('',#440,1.45);
#418=CIRCLE('',#441,1.15);
#419=CIRCLE('',#443,1.5);
#420=CIRCLE('',#444,1.);
#421=CIRCLE('',#446,2.25);
#422=CIRCLE('',#447,2.25);
#423=CIRCLE('',#448,2.25);
#424=CIRCLE('',#449,2.25);
#425=CIRCLE('',#451,3.25);
#426=CIRCLE('',#452,3.25);
#427=CIRCLE('',#453,3.25);
#428=CIRCLE('',#454,3.25);
#429=CIRCLE('',#455,3.25);
#430=CIRCLE('',#457,1.15);
#431=CIRCLE('',#459,1.5);
#432=CIRCLE('',#461,3.05);
#433=CIRCLE('',#462,2.75);
#434=CIRCLE('',#469,3.05);
#435=CIRCLE('',#470,2.75);
#436=AXIS2_PLACEMENT_3D('',#587,#481,#482);
#437=AXIS2_PLACEMENT_3D('',#588,#483,#484);
#438=AXIS2_PLACEMENT_3D('',#590,#485,#486);
#439=AXIS2_PLACEMENT_3D('',#592,#487,#488);
#440=AXIS2_PLACEMENT_3D('',#593,#489,#490);
#441=AXIS2_PLACEMENT_3D('',#595,#491,#492);
#442=AXIS2_PLACEMENT_3D('',#597,#493,#494);
#443=AXIS2_PLACEMENT_3D('',#598,#495,#496);
#444=AXIS2_PLACEMENT_3D('',#600,#497,#498);
#445=AXIS2_PLACEMENT_3D('',#602,#499,#500);
#446=AXIS2_PLACEMENT_3D('',#603,#501,#502);
#447=AXIS2_PLACEMENT_3D('',#608,#504,#505);
#448=AXIS2_PLACEMENT_3D('',#612,#507,#508);
#449=AXIS2_PLACEMENT_3D('',#616,#510,#511);
#450=AXIS2_PLACEMENT_3D('',#619,#513,#514);
#451=AXIS2_PLACEMENT_3D('',#620,#515,#516);
#452=AXIS2_PLACEMENT_3D('',#622,#517,#518);
#453=AXIS2_PLACEMENT_3D('',#627,#520,#521);
#454=AXIS2_PLACEMENT_3D('',#631,#523,#524);
#455=AXIS2_PLACEMENT_3D('',#635,#526,#527);
#456=AXIS2_PLACEMENT_3D('',#638,#529,#530);
#457=AXIS2_PLACEMENT_3D('',#639,#531,#532);
#458=AXIS2_PLACEMENT_3D('',#641,#533,#534);
#459=AXIS2_PLACEMENT_3D('',#642,#535,#536);
#460=AXIS2_PLACEMENT_3D('',#644,#537,#538);
#461=AXIS2_PLACEMENT_3D('',#648,#540,#541);
#462=AXIS2_PLACEMENT_3D('',#652,#543,#544);
#463=AXIS2_PLACEMENT_3D('',#653,#545,#546);
#464=AXIS2_PLACEMENT_3D('',#662,#547,#548);
#465=AXIS2_PLACEMENT_3D('',#671,#549,#550);
#466=AXIS2_PLACEMENT_3D('',#672,#551,#552);
#467=AXIS2_PLACEMENT_3D('',#673,#553,#554);
#468=AXIS2_PLACEMENT_3D('',#674,#555,#556);
#469=AXIS2_PLACEMENT_3D('',#678,#558,#559);
#470=AXIS2_PLACEMENT_3D('',#682,#561,#562);
#471=AXIS2_PLACEMENT_3D('',#683,#563,#564);
#472=AXIS2_PLACEMENT_3D('',#684,#565,#566);
#473=AXIS2_PLACEMENT_3D('',#693,#567,#568);
#474=AXIS2_PLACEMENT_3D('',#702,#569,#570);
#475=AXIS2_PLACEMENT_3D('',#704,#572,#573);
#476=AXIS2_PLACEMENT_3D('',#706,#575,#576);
#477=AXIS2_PLACEMENT_3D('',#707,#577,#578);
#478=AXIS2_PLACEMENT_3D('',#710,#581,#582);
#479=AXIS2_PLACEMENT_3D('',#711,#583,#584);
#480=AXIS2_PLACEMENT_3D('',#712,#585,#586);
#481=DIRECTION('',(0.,0.,1.));
#482=DIRECTION('',(1.,0.,0.));
#483=DIRECTION('',(0.,-1.,0.));
#484=DIRECTION('',(0.,0.,1.));
#485=DIRECTION('',(0.,1.,0.));
#486=DIRECTION('',(0.,0.,1.));
#487=DIRECTION('',(0.,1.,0.));
#488=DIRECTION('',(0.,0.,-1.));
#489=DIRECTION('',(0.,1.,0.));
#490=DIRECTION('',(0.,0.,-1.));
#491=DIRECTION('',(0.,-1.,0.));
#492=DIRECTION('',(0.,0.,-1.));
#493=DIRECTION('',(0.,-1.,0.));
#494=DIRECTION('',(0.,0.,1.));
#495=DIRECTION('',(0.,1.,0.));
#496=DIRECTION('',(0.,0.,-1.));
#497=DIRECTION('',(0.,-1.,0.));
#498=DIRECTION('',(0.,0.,-1.));
#499=DIRECTION('',(0.,1.,0.));
#500=DIRECTION('',(0.,0.,-1.));
#501=DIRECTION('',(0.,1.,0.));
#502=DIRECTION('',(0.,0.,1.));
#503=DIRECTION('',(0.,-1.,0.));
#504=DIRECTION('',(0.,1.,0.));
#505=DIRECTION('',(0.,0.,1.));
#506=DIRECTION('',(0.,1.,0.));
#507=DIRECTION('',(0.,1.,0.));
#508=DIRECTION('',(0.,0.,1.));
#509=DIRECTION('',(0.,-1.,0.));
#510=DIRECTION('',(0.,1.,0.));
#511=DIRECTION('',(0.,0.,1.));
#512=DIRECTION('',(0.,1.,0.));
#513=DIRECTION('',(0.,-1.,0.));
#514=DIRECTION('',(0.,0.,1.));
#515=DIRECTION('',(0.,-1.,0.));
#516=DIRECTION('',(0.,0.,-1.));
#517=DIRECTION('',(0.,-1.,0.));
#518=DIRECTION('',(-1.24344978758018E-014,0.,1.));
#519=DIRECTION('',(0.,-1.,0.));
#520=DIRECTION('',(0.,-1.,0.));
#521=DIRECTION('',(0.,0.,1.));
#522=DIRECTION('',(0.,1.,0.));
#523=DIRECTION('',(0.,-1.,0.));
#524=DIRECTION('',(0.,0.,1.));
#525=DIRECTION('',(0.,-1.,0.));
#526=DIRECTION('',(0.,-1.,0.));
#527=DIRECTION('',(0.,0.,1.));
#528=DIRECTION('',(0.,1.,0.));
#529=DIRECTION('',(0.,-1.,0.));
#530=DIRECTION('',(0.,0.,1.));
#531=DIRECTION('',(0.,-1.,0.));
#532=DIRECTION('',(0.,0.,-1.));
#533=DIRECTION('',(0.,-1.,0.));
#534=DIRECTION('',(0.,0.,1.));
#535=DIRECTION('',(0.,-1.,0.));
#536=DIRECTION('',(0.,0.,-1.));
#537=DIRECTION('',(0.,-1.,0.));
#538=DIRECTION('',(0.,0.,1.));
#539=DIRECTION('',(-1.2300236788923E-016,0.,-1.));
#540=DIRECTION('',(0.,1.,0.));
#541=DIRECTION('',(0.,0.,1.));
#542=DIRECTION('',(-1.2300236788923E-016,0.,-1.));
#543=DIRECTION('',(0.,-1.,0.));
#544=DIRECTION('',(0.,0.,1.));
#545=DIRECTION('',(0.,1.,0.));
#546=DIRECTION('',(0.,0.,-1.));
#547=DIRECTION('',(0.,1.,0.));
#548=DIRECTION('',(0.,0.,-1.));
#549=DIRECTION('',(0.,-1.,0.));
#550=DIRECTION('',(0.,2.76656622134357E-017,1.));
#551=DIRECTION('',(0.,-1.,0.));
#552=DIRECTION('',(0.,0.,1.));
#553=DIRECTION('',(0.,1.,0.));
#554=DIRECTION('',(0.,0.,-1.));
#555=DIRECTION('',(0.,-1.,0.));
#556=DIRECTION('',(0.,0.,1.));
#557=DIRECTION('',(1.2300236788923E-016,0.,1.));
#558=DIRECTION('',(0.,1.,0.));
#559=DIRECTION('',(0.,0.,1.));
#560=DIRECTION('',(1.2300236788923E-016,0.,1.));
#561=DIRECTION('',(0.,-1.,0.));
#562=DIRECTION('',(0.,0.,1.));
#563=DIRECTION('',(0.,1.,0.));
#564=DIRECTION('',(0.,0.,-1.));
#565=DIRECTION('',(0.,1.,0.));
#566=DIRECTION('',(0.,0.,-1.));
#567=DIRECTION('',(0.,1.,0.));
#568=DIRECTION('',(0.,0.,-1.));
#569=DIRECTION('',(0.,-1.,0.));
#570=DIRECTION('',(0.,2.76656622134357E-017,1.));
#571=DIRECTION('',(1.2300236788923E-016,0.,1.));
#572=DIRECTION('',(-1.,0.,1.2300236788923E-016));
#573=DIRECTION('',(-1.22948526359856E-016,0.,-1.));
#574=DIRECTION('',(-1.2300236788923E-016,0.,-1.));
#575=DIRECTION('',(1.,0.,-1.2300236788923E-016));
#576=DIRECTION('',(1.22948526359856E-016,0.,1.));
#577=DIRECTION('',(0.,1.,0.));
#578=DIRECTION('',(0.,0.,-1.));
#579=DIRECTION('',(1.2300236788923E-016,0.,1.));
#580=DIRECTION('',(-1.2300236788923E-016,0.,-1.));
#581=DIRECTION('',(0.,1.,0.));
#582=DIRECTION('',(0.,0.,-1.));
#583=DIRECTION('',(-1.,0.,1.2300236788923E-016));
#584=DIRECTION('',(-1.22948526359856E-016,0.,-1.));
#585=DIRECTION('',(1.,0.,-1.2300236788923E-016));
#586=DIRECTION('',(1.22948526359856E-016,0.,1.));
#587=CARTESIAN_POINT('',(0.,0.,0.));
#588=CARTESIAN_POINT('',(0.,10.65,0.));
#589=CARTESIAN_POINT('',(0.,10.65,2.25));
#590=CARTESIAN_POINT('',(0.,10.15,0.));
#591=CARTESIAN_POINT('',(0.,10.15,1.75));
#592=CARTESIAN_POINT('',(0.,10.65,0.));
#593=CARTESIAN_POINT('',(0.,9.2,0.));
#594=CARTESIAN_POINT('',(0.,9.2,-1.45));
#595=CARTESIAN_POINT('',(0.,8.9,0.));
#596=CARTESIAN_POINT('',(0.,8.9,-1.15));
#597=CARTESIAN_POINT('',(0.,8.9,0.));
#598=CARTESIAN_POINT('',(0.,0.500000000000001,0.));
#599=CARTESIAN_POINT('',(0.,0.500000000000001,-1.5));
#600=CARTESIAN_POINT('',(0.,0.,0.));
#601=CARTESIAN_POINT('',(0.,0.,-1.));
#602=CARTESIAN_POINT('',(0.,0.,0.));
#603=CARTESIAN_POINT('',(0.,24.2,0.));
#604=CARTESIAN_POINT('',(-0.55,24.2,2.18174242292714));
#605=CARTESIAN_POINT('',(0.55,24.2,2.18174242292714));
#606=CARTESIAN_POINT('',(0.55,0.,2.18174242292714));
#607=CARTESIAN_POINT('',(0.55,25.7,2.18174242292714));
#608=CARTESIAN_POINT('',(0.,25.7,0.));
#609=CARTESIAN_POINT('',(0.55,25.7,-2.18174242292714));
#610=CARTESIAN_POINT('',(0.55,0.,-2.18174242292714));
#611=CARTESIAN_POINT('',(0.55,24.2,-2.18174242292714));
#612=CARTESIAN_POINT('',(0.,24.2,0.));
#613=CARTESIAN_POINT('',(-0.55,24.2,-2.18174242292714));
#614=CARTESIAN_POINT('',(-0.55,0.,-2.18174242292714));
#615=CARTESIAN_POINT('',(-0.55,25.7,-2.18174242292714));
#616=CARTESIAN_POINT('',(0.,25.7,0.));
#617=CARTESIAN_POINT('',(-0.55,25.7,2.18174242292714));
#618=CARTESIAN_POINT('',(-0.55,0.,2.18174242292714));
#619=CARTESIAN_POINT('',(0.,0.,0.));
#620=CARTESIAN_POINT('',(0.,9.2,0.));
#621=CARTESIAN_POINT('',(0.,9.2,-3.25));
#622=CARTESIAN_POINT('',(0.,24.2,0.));
#623=CARTESIAN_POINT('',(0.550000000000001,24.2,3.20312347560939));
#624=CARTESIAN_POINT('',(-0.549999999999999,24.2,3.20312347560939));
#625=CARTESIAN_POINT('',(-0.549999999999999,0.,3.20312347560939));
#626=CARTESIAN_POINT('',(-0.549999999999999,26.,3.2031234756094));
#627=CARTESIAN_POINT('',(0.,26.,0.));
#628=CARTESIAN_POINT('',(-0.55,26.,-3.20312347560939));
#629=CARTESIAN_POINT('',(-0.55,0.,-3.20312347560939));
#630=CARTESIAN_POINT('',(-0.55,24.2,-3.20312347560939));
#631=CARTESIAN_POINT('',(0.,24.2,0.));
#632=CARTESIAN_POINT('',(0.55,24.2,-3.20312347560939));
#633=CARTESIAN_POINT('',(0.55,0.,-3.20312347560939));
#634=CARTESIAN_POINT('',(0.55,26.,-3.2031234756094));
#635=CARTESIAN_POINT('',(0.,26.,0.));
#636=CARTESIAN_POINT('',(0.550000000000001,26.,3.20312347560939));
#637=CARTESIAN_POINT('',(0.550000000000001,0.,3.20312347560939));
#638=CARTESIAN_POINT('',(0.,0.,0.));
#639=CARTESIAN_POINT('',(0.,5.,0.));
#640=CARTESIAN_POINT('',(0.,5.,-1.15));
#641=CARTESIAN_POINT('',(0.,0.,0.));
#642=CARTESIAN_POINT('',(0.,5.,0.));
#643=CARTESIAN_POINT('',(0.,5.,-1.5));
#644=CARTESIAN_POINT('',(0.,0.,0.));
#645=CARTESIAN_POINT('',(0.55,26.2,-4.40724106003344));
#646=CARTESIAN_POINT('',(0.55,26.2,3.));
#647=CARTESIAN_POINT('',(0.55,26.2,2.6944387170615));
#648=CARTESIAN_POINT('',(0.,26.2,0.));
#649=CARTESIAN_POINT('',(0.55,26.2,-3.));
#650=CARTESIAN_POINT('',(0.55,26.2,-4.40724106003344));
#651=CARTESIAN_POINT('',(0.55,26.2,-2.6944387170615));
#652=CARTESIAN_POINT('',(0.,26.2,0.));
#653=CARTESIAN_POINT('',(3.25,26.2,0.));
#654=CARTESIAN_POINT('',(0.55,26.2,2.6944387170615));
#655=CARTESIAN_POINT('',(0.55,26.0329350007994,2.52392871626148));
#656=CARTESIAN_POINT('',(0.55,25.8661773421805,2.3531187577213));
#657=CARTESIAN_POINT('',(0.55,25.7,2.18174242292714));
#658=CARTESIAN_POINT('',(0.55,25.7,-2.18174242292714));
#659=CARTESIAN_POINT('',(0.55,25.8661737496356,-2.35311505278072));
#660=CARTESIAN_POINT('',(0.55,26.0329320605665,-2.52392571539884));
#661=CARTESIAN_POINT('',(0.55,26.2,-2.6944387170615));
#662=CARTESIAN_POINT('',(0.,26.2,0.));
#663=CARTESIAN_POINT('',(0.550000000000001,26.,3.20312347560939));
#664=CARTESIAN_POINT('',(0.550000000000001,26.0666994679956,3.13544788563097));
#665=CARTESIAN_POINT('',(0.55,26.1333683199751,3.06774220802531));
#666=CARTESIAN_POINT('',(0.55,26.2,3.));
#667=CARTESIAN_POINT('',(0.55,26.2,-3.));
#668=CARTESIAN_POINT('',(0.55,26.1333682548648,-3.06774227422075));
#669=CARTESIAN_POINT('',(0.55,26.0666994068902,-3.1354479476306));
#670=CARTESIAN_POINT('',(0.55,26.,-3.2031234756094));
#671=CARTESIAN_POINT('',(0.,26.,0.));
#672=CARTESIAN_POINT('',(0.,0.,0.));
#673=CARTESIAN_POINT('',(1.5,5.,0.));
#674=CARTESIAN_POINT('',(3.25,9.2,0.));
#675=CARTESIAN_POINT('',(-0.55,26.2,-4.40724106003344));
#676=CARTESIAN_POINT('',(-0.55,26.2,-3.));
#677=CARTESIAN_POINT('',(-0.55,26.2,-2.6944387170615));
#678=CARTESIAN_POINT('',(0.,26.2,0.));
#679=CARTESIAN_POINT('',(-0.55,26.2,3.));
#680=CARTESIAN_POINT('',(-0.55,26.2,-4.40724106003344));
#681=CARTESIAN_POINT('',(-0.55,26.2,2.6944387170615));
#682=CARTESIAN_POINT('',(0.,26.2,0.));
#683=CARTESIAN_POINT('',(3.25,26.2,0.));
#684=CARTESIAN_POINT('',(2.25,10.15,0.));
#685=CARTESIAN_POINT('',(-0.55,26.2,-2.6944387170615));
#686=CARTESIAN_POINT('',(-0.55,26.0329350007994,-2.52392871626148));
#687=CARTESIAN_POINT('',(-0.55,25.8661773421805,-2.35311875772129));
#688=CARTESIAN_POINT('',(-0.55,25.7,-2.18174242292714));
#689=CARTESIAN_POINT('',(-0.55,25.7,2.18174242292714));
#690=CARTESIAN_POINT('',(-0.55,25.8661737496356,2.35311505278072));
#691=CARTESIAN_POINT('',(-0.55,26.0329320605665,2.52392571539884));
#692=CARTESIAN_POINT('',(-0.55,26.2,2.6944387170615));
#693=CARTESIAN_POINT('',(0.,26.2,0.));
#694=CARTESIAN_POINT('',(-0.55,26.,-3.20312347560939));
#695=CARTESIAN_POINT('',(-0.55,26.0666994679956,-3.13544788563097));
#696=CARTESIAN_POINT('',(-0.55,26.1333683199751,-3.06774220802531));
#697=CARTESIAN_POINT('',(-0.55,26.2,-3.));
#698=CARTESIAN_POINT('',(-0.55,26.2,3.));
#699=CARTESIAN_POINT('',(-0.55,26.1333682548648,3.06774227422075));
#700=CARTESIAN_POINT('',(-0.549999999999999,26.0666994068902,3.1354479476306));
#701=CARTESIAN_POINT('',(-0.549999999999999,26.,3.2031234756094));
#702=CARTESIAN_POINT('',(0.,26.,0.));
#703=CARTESIAN_POINT('',(-0.55,24.2,-4.40724106003344));
#704=CARTESIAN_POINT('',(-0.55,24.2,-4.40724106003344));
#705=CARTESIAN_POINT('',(0.55,24.2,-4.40724106003344));
#706=CARTESIAN_POINT('',(0.55,24.2,-4.40724106003344));
#707=CARTESIAN_POINT('',(0.,24.2,0.));
#708=CARTESIAN_POINT('',(-0.55,24.2,-4.40724106003344));
#709=CARTESIAN_POINT('',(0.55,24.2,-4.40724106003344));
#710=CARTESIAN_POINT('',(0.,24.2,0.));
#711=CARTESIAN_POINT('',(-0.55,24.2,-4.40724106003344));
#712=CARTESIAN_POINT('',(0.55,24.2,-4.40724106003344));
#713=(
GEOMETRIC_REPRESENTATION_CONTEXT(3)
GLOBAL_UNCERTAINTY_ASSIGNED_CONTEXT((#714))
GLOBAL_UNIT_ASSIGNED_CONTEXT((#720,#716,#715))
REPRESENTATION_CONTEXT('DAOXIANGKONG','TOP_LEVEL_ASSEMBLY_PART')
);
#714=UNCERTAINTY_MEASURE_WITH_UNIT(LENGTH_MEASURE(2.E-005),#720,
'DISTANCE_ACCURACY_VALUE','Maximum Tolerance applied to model');
#715=(
NAMED_UNIT(*)
SI_UNIT($,.STERADIAN.)
SOLID_ANGLE_UNIT()
);
#716=(
CONVERSION_BASED_UNIT('DEGREE',#718)
NAMED_UNIT(#717)
PLANE_ANGLE_UNIT()
);
#717=DIMENSIONAL_EXPONENTS(0.,0.,0.,0.,0.,0.,0.);
#718=PLANE_ANGLE_MEASURE_WITH_UNIT(PLANE_ANGLE_MEASURE(0.0174532925),#719);
#719=(
NAMED_UNIT(*)
PLANE_ANGLE_UNIT()
SI_UNIT($,.RADIAN.)
);
#720=(
LENGTH_UNIT()
NAMED_UNIT(*)
SI_UNIT(.MILLI.,.METRE.)
);
ENDSEC;
END-ISO-10303-21;
